Date: Tue, 19 Dec 1995 13:06:40 GMT
From: mo30g71
Credits are at the bottom
NineInchNails (TDS #3) HERESY By Psylip Coval
======
[INTRO] Synth line arranged for guitar
e|---------------------------------|---------------------------------------|
b|---------------------------------|---------------------------------------|
g|---------------------------------|---------------------------------------|
D|:--1-3-3-3-1-3-3--3-3-3--3-3-3--:|---------------------------------------|
A|---------------------------------|---------------------------------------|
D|---------------3--3-3-3--3-3-3---|---------------------------------------|
[VERSE_1]
He sewed his eyes shut because he is afraid to see
He tries to tell me what I put inside of me
He's got the answers to ease my curiosity
He dreamed a god up and called it christianity
[CHORUS] Chorus riff
e|-------------------------------------------------------------------------|
b|-------------------------------------------------------------------------|
g|-------------------------------------------------------------------------|
D|:------9----8------7----5---3--6--5----------1-1s3-3--------------------:|
A|-------9----8------7----5---3--6--5----------1-1s3-3---------------------|
D|-------9----8------7----5---3--6--5----------1-1s3-3---------------------|
(Your) god is dead and no one cares
if there is a hell I'll see you there
[PRE_VERSE] Cool little riff x6
e|---------------------|---------------------------------------------------|
b|---------------------|---------------------------------------------------|
g|---------------------|---------------------------------------------------|
D|:----1-3------------:|---------------------------------------------------|
A|---------------------|---------------------------------------------------|
D|-3-3-------3-6-3-----|---------------------------------------------------|
[VERSE_2] w/ cool riff
he flexed his muscles to keep his flock of sheep in line
he made a virus that would kill off all the swine
his perfect kingdom of killing, suffering and pain
demands devotion atrocities done in his name
[CHORUS] x2 god is dead......hell I'll see you there
[BREAK] perc/synth line:
Syth line arr 4 gtr (on b string) => b|:--11--9---:| x8
Then add the Outro guitar part:
e|----------------------|--------------------------------------------------|
b|----------------------|--------------------------------------------------|
g|--3-8---10------------|--------------------------------------------------|
D|:-3-8---10-----------:|--------------------------------------------------|
A|--1-6---8----3-3-3-3--|--------------------------------------------------|
D|-------------3-3-3-3--|--------------------------------------------------|
[CHORUS] god is dead......hell I'll see you there
[OUTRO] {sort of confused chorus part}
/ (your god is dead) (and no one cares)
\ your god is dead and no one cares
/(drowning in his own hypocrisy)
\ if there is a hell I will see you there
? burning with your god in humility ? { extra }
? will you die for this? ? {words ?}
____________________[niNOTES]___________________
Words of "Mommy" :
This is an interestin tune...tune down to DROP D for this one...
The outro at first sounds like it changes every other measure,
but if you listen really closely, it's all synth noise
that I couldn't hear well enough to TAB out...
Words of "Psylip" :
This song is full of "parasit" noises. That's why the chorus part
and the outro sound weird to me. Anyway all others sound good.
I'm not sure trent "sings" all the outro the way it is printed
And last "if there is a hell" could be ~ "it's that all I have".
Credits for "nine_inch_nails/heresy.tab" :
Phil Coval




Ваше мнение



Капча