Nine Inch Nails
Pretty Hate Machine
Head Like A Hole
Transcribed by ---====---
[email protected]

--====--

These are the only two parts for guitar you need for the entire song

[intro]

e|----------------------------------------|
B|----------------------------------------|
G|----------------------------------------|
D|----------------------------------------|
A|----------------------------------------|
E|12-0-0-13-0-0-10-0-0-5-0-0-4-5-4-0------|
"god money Il'l do anything for you..."

[chorus]
e|--------------------------------------------------------------|
B|--------------------------------------------------------------|
G|-9-9-9-9-9-9-10-9-9-9-9-9-10-9-9-9-9-9-9--14-x-x-x-14-x-x-14--|
D|-9-9-9-9-9-9-10-9-9-9-9-9-10-9-9-9-9-9-9--14-x-x-x-14-x-x-14--|
A|-7-7-7-7-7-7-8--7-7-7-7-7--8-7-7-7-7-7-7--12-x-x-x-12-x-x-12--|
E|--------------------------------------------------------------|
"HEAD LIKE A HOLE, BLACK AT YOUR SOUL, I'D RATHER DIE, THAN GIVE YOU CONTROL"

[email protected]
---====---




Ваше мнение



Капча