Music X Tabs [http://www.mxtabs.net]
Eraser
tuning: standard
tabbed by thebottom - [email protected]

p.m.=palm mute
b=bend

Guitar: 1:39
|----------------------------------------16b(1/2)--16b(1/2)--|
|------------------------------------------------------------|
|--14-14-14-14-14-14-14-14-14-14-----------------------------|
|------------------------------------------------------------|
|------------------------------------------------------------|
|------------------------------------------------------------|

|---------------------------------13b(1/2)--13b(1/2)--|
|-----------------------------------------------------|
|--16-16-16-16-16-16-16-16-16-16----------------------|
|-----------------------------------------------------|
|-----------------------------------------------------|
|-----------------------------------------------------|

Hate me!...:
|---------------------------------|
|---------------------------------|
|---------------------------------|
|--3-3--3-3-3-3-3-3-3-3-3-3--3-3--|
|--3-3--3-3-3-3-3-3-3-3-3-3--3-3--|
|--1-1--1-1-1-1-1-1-1-1-1-1--1-1--|
p.m.---------------




Ваше мнение



Капча