song: big man with a gun
band: nine inch nails

here's big man with a gun. it's a fairly short song, so the
transcription is short as well. the first line below is the
basic keyboard line, tabbed to bass.

G|---------------------------------|
D|---------------------------------|
A|------------------------------5--|
E|--0-0-0-0-0-0-0-0-0-0-0-0-6------|

E|------------------------------------------------|
B|------------------------------------------------|
G|------------------------------------------------|
D|--7------8------9-9-9-9---------7--8---9-9-9-9--|
A|--5------6------7-7-7-7------5--5--6---7-7-7-7--|
E|-------------------------0-6---------0----------|
i appoligize in advance for anyone trying to learn
this, as the timing is really weird, and very hard
for me to transcribe. i guess the only thing that
i can suggest would be to practice by playing along
with the tape/CD.

transcribed by: [email protected]




Ваше мнение



Капча