Nine Inch Nails - 10 Miles High
Tabbed By: Myke
EMail: [email protected]
Standard Tuning
Intro:
|--0--0--0--|
|--0--0--0--|
|--3--1--3--|
|--2--2--2--|
|--2--2--2--|
|--0--0--0--|
Plinky Piano:
|---------------------|
|---------------------|
|--13--14--16--15--8--|
|---x---x---x---x--x--|
|--11--12--14--13--6--|
|---------------------|
Bassline:
|-------------------|
|-------------------|
|-------------------|
|--9-9-9-9-10--12---|
1:40:
|--6--|
|--x--|
|--0--|
|--5--|
|-----|
|-----|
Heavy Part:
|----------------------------|
|----------------------------|
|--6-6-6-6-7--9-9-9--8-8-----|
|--6-6-6-6-7--9-9-9--8-8--6--|
|--4-4-4-4-5--7-7-7--6-6--6--|
|-------------------------4--|
[email protected]
2OO2




Ваше мнение



Капча