T. See http://www.olga.net/faq/ for more information. #
From: "Moti Gust"
Subject: c/costa_nikka/on_my_own.crd
Date: Fri, 1 Oct 1999 20:26:12 +0200

(Out Here) On My Own / Nikka Costa (Or Irene Cara..)
All the areas marked with (*) has an advanced implementation
At the bottom.
Have fun,
Moti :-) [email protected]
Intro:
G Am7 (Slide) G/B G4/A
E -------3--------------3------------3-------------3----------
B ----------0----1-----------1---3-------3------1-----1-------
G ----0--------------0----------------------0------------0----
D -0----------------------------------------------------------
A ---------------0---------------2--------------0-------------
E -3----------------------------------------------------------

Am7/G (*)
Sometimes ...
Bm7 Bm
Cmaj7 (**)
G/B (*)
Am7 G/B (B->C->D)
C/D D (***)

Cmaj7 B7
When I'm down ....
Em A7 C A7
F#m Bm F#m Bm Em
Cmaj7 Am9/F# (****)B7
G/C x4
Until the ...
Repear verse1
Am7
I may ...
G/B
C Cmaj7 D
G/G4... D/D4
C Cmaj7 D (Repeat the intro.)
Out here, on my own...
Am7 G
On my own....
(*)
Am7/G G/B
E --3---- -----3----
B --1---- -----3----
G --0---- -----0----
D --2---- -----0----
A --x---- -----2----
E --3---- -----x----

(**)
E ------0------0---3---------------------------------------
B --0--------------3---------------------------------------
G ----------2----------------------------------------------
D ---------------------------------------------------------
A ----------0------2---------------------------------------
E --4------------------------------------------------------

(***)
D C D
E --2--------3--------5-------------------------------------
B --3--------5--------7-------------------------------------
G ------2--------5----7-------------------------------------
D --0--------0----------------------------------------------
A ----------------------------------------------------------
E ----------------------------------------------------------
(****)
Help me ....
E --0---------------------------0-----------------------3---
B --0------------------------0-----0--2-----------------3---
G --0---------------------2---------------------4---6---0---
D --2---------------------------------------------------2---
A --3---------------------------------1-----------------3---
E ------------------------2---------------------4---6-------




Ваше мнение



Капча