#----------------------------------PLEASE NOTE---------------------------------#
#This file is the author's own work and represents their interpretation of the-#
#song. You may only use this file for private study, scholarship, or research.-#
#------------------------------------------------------------------------------#
Nightwish - Wishmaster
Submitted By: Elminster
Album: Wishmaster
I didn't transcribe this, so don't send me any suggestions/comments.0
Unfortunately, I've lost the name and mail of the guy who transcribed it...
Normal tuning: EADGBE
You can play some chords (I marked them with $) one octave deeper
but in that case you must tune back your strings to D#-G#-C#-F#-A#-D#
Chorus Riff1:
e:----------------------------------------|
B:----------------------------------------|
G:-----------8--8----------------8----8---|
D:-6--3------8--8------6--3------8----8-8-|
A:-6--3------6--6------6--3------6----6-8-|
E:-4--1----------------4--1-------------6-|
Chorus Riff2:
e:---------------------------------------------------------------------|
B:---------------------------------------------------------------------|
G:---------------------------------------8---------------------8---8---|
D:-3-----3-----3-----6-3-----3-----3-----8-3-----3-----3-----6-8---8-8-|
A:-3-----3-----3-----6-3-----3-----3-----6-3-----3-----3-----6-6---6-8-|
E:-1-1-1-1-1-1-1-1-1-4-1-1-1-1-1-1-1-1-1---1-1-1-1-1-1-1-1-1-4-------6-|
Bridge:
e:---------------------------------------------------------------------|
B:---------------------------------------------------------------------|
G:----------------------------3----------------------------------3-3-5-|
D:-555-555--6--5-6-3-5--5555----6-3---555-555--6--5-6-3-6--5555--1-1-3-|
A:---------------------------------------------------------------------|
E:---------------------------------------------------------------------|
xxx xxx x x x x x xxxx xxx xxx x x x x x xxxx
Verse:
e:----------------------------$----------------$----------|
B:--------------------------------------------------------|
G:----------------------------8-----8-8--------8--------8-|
D:-3---3-3-3--3-3-3--3-3-3--6-8--3--8-8--3---6-8--3---6-8-|
A:-3---3-3-3--3-3-3--3-3-3--6-6--3--6-6--3---6-6--3---6-6-|
E:-1---1-1-1--1-1-1--1-1-1--4----1*------1*--4----1*--4---|
e:-------$----------------$------------------------|
B:-------------------------------------------------|
G:-------8-----8-8--------8------8-----------------|
D:-3---6-8--3--8-8--3---6-8--3---8-8----6-6-6-8--4-|
A:-3---6-6--3--6-6--3---6-6--3---6-8----6-6-6-8--4-|
E:-1*--4----1*------1*--4----1*----6----4-4-4-6--2-|
Solo1:
e:------2x--------------------------------------------------------------|
B:------------------6-6-6----------------6-6-6----------------6-6-6-----|
G:--------8-8-8-7-5-------8-7--8-8-8-7-5-------8-7--8-8-8-7-5-------8-7-|
D:-3--------------------------------------------------------------------|
A:-3--------------------------------------------------------------------|
E:-1--------------------------------------------------------------------|
e:------------------------2x-----------------------------------------------|
B:-8-8-8-6---6------------------------------11-11-11-----------------------|
G:---------8---8-7-8-7-5-----13-13-13-12-10----------13-12--13-13-13-12-10-|
D:-------------------------------------------------------------------------|
A:-------------------------------------------------------------------------|
E:-------------------------------------------------------------------------|
e:--------------------------10-11--11-11-11-10----------------------------|
B:-11-11-11----11--13-13-13--------------------13--11-11-11-13-11---------|
G:----------13-----------------------------------------------------13--12-|
D:------------------------------------------------------------------------|
A:------------------------------------------------------------------------|
E:------------------------------------------------------------------------|
e:2x--------------------------------------------------------------|
B:------------6-6-6----------------6-6-6----------------6-6-6-----|
G:--8-8-8-7-5-------8-7--8-8-8-7-5-------8-7--8-8-8-7-5-------8-7-|
D:----------------------------------------------------------------|
A:----------------------------------------------------------------|
E:----------------------------------------------------------------|
e:-----------------------|
B:-8-8-8-6---6-----------|
G:---------8---8-7-8-7-5-|
D:-----------------------|
A:-----------------------|
E:-----------------------|
After Solo1:
e:----------------------------------------------------|
B:----------------------------------------------------|
G:--------8---------------------------8---------------|
D:-3------8------8------6------3------8------8------3-|
A:-3------6------8------6------3------6------8------3-|
E:-1-------------6------4------1-------------6------1-|
Solo2(It's not exactly that Emppu plays):
e:----------------------------------------------------|
B:-6~---5~-------------------6~---6/8~---8/9~---9/11~-|
G:-----------6-5~---5h6-5~----------------------------|
D:----------------------------------------------------|
A:----------------------------------------------------|
E:----------------------------------------------------|
e:------------------------------------------------------------------|
B:------------------------------------------------------------------|
G:------------------------------------------------------------------|
D:---------------8----8-10-8-10-11--11-10-8-10-8----8---------------|
A:-8-10-11-10-11---11----------------------------11---11-10-11-10-8-|
E:------------------------------------------------------------------|
e:-----------------------------------------------------------------------------|
B:--------------------------------------------------------------8~-9~-9s8------|
G:-------------------------10~-----------------------------8-10-----------10~-|
D:---------------8----8-10-------------------8-10-11-10-11---------------------|
A:-8-10-11-10-11---11----------8-10-11-10-11-----------------------------------|
E:-----------------------------------------------------------------------------|
e:-----------------------|
B:-----------------------|
G:-----------------------|
D:-11----8-10-8----------|
A:--------------11-10-8-|
===============================================================================




Ваше мнение



Капча