-----------------------------------------------------------
She is my Sin -- Nightwish off the Album Wishmaster (2000)
-----------------------------------------------------------
Tabbed by:
Roberto Carlos Argueta Ventura ([email protected])
All the Guitar parts of this song are played with distortion and regular tuning.
pm - palm mute
p - pull off
h - hammer on
/ - slide up
- slide down

INTRO:
e-------------|---------------|----------------------------|
B-------------|---------------|----------------------------|
G-------------|---------------|----------------------------|
D--5-5-5------|--3-3-5-5-5----|--3-3-5-5-5--8-5-8----------|
A--3-3-3------|--1-1-3-3-3----|--1-1-3-3-3--6-3-6-8-5-6---8|
E-------------|---------------|-------------------6-3-4---6|
Then you have to play this twice, no matters if the rythm changes (Just listen
to the song and you wonґt have problems)
e-------------------------------|--------------------------------|
B-------------------------------|--------------------------------|
G-------------------------------|--------------------------------|
D--5-----5-6-----6-5-----5-3-3--|-5-----5-6-----6-5-----5-5p3---3|
A----3-3-----3-3-----3-3--------|---3-3-----3-3-----3-3-------6--|
E-------------------------------|--------------------------------|
pm...............................................................
E----------------------|
B----------------------|
G----------------------|
D--5--8-5-8------------|
A--3--6-3-6-8-5-6---8--|
E-----------6-3-4---6--|
VERSE 1:
Take heed, dear heart Once apart, she canґt touch nor me nor you
(YOU ONLY PLAY AN A CHORD DURING THIS LINE,THE OTHER INSTRUMENTS DO THE REST)
e-------------------------------------------------------------------|
B-------------------------------------------------------------------|
G-------------------------------------------------------------------|
D-------------------------------------------------------------------|
A--7----------------------------------------------------------------|
E--5----------------------------------------------------------------|
Then play this: RIFF A
e-------------------------------|
B-------------------------------|
G-------------------------------|
D--2-----2-3-----3-2-----2-0-0--|
A----0-0-----0-0-----0-0--------|
E-------------------------------|
pm...............................
Dressed as one A wolf will betray a lamb. (Thereґs no guitar until the end of this line)
e---------------|
B---------------|
G---------------|
D---------------|
A--3-----3-5----|
E--1-----1-3----|
Lead astray the gazers The Razors on your seducing skin
e---------------------------------------------------------
B---------------------------------------------------------
G---------------------------------------------------------Then RIFF A
D---------------------------------------5-----------------
A--7-7-7-7-7--7-7-7--7-7-7-7-7-5--------3------5----------
E--5-5-5-5-5--5-5-5--5-5-5-5-5-3---------------3----------
pm............................
In the meadow of sinful thoughts Every flowerґs a perfect one
e---------------------------------------------------------------|
B---------------------------------------------------------------|
G---------------------------------------------------------------|
D---------------------------------------7-----------------------|
A--7-7-7-7-7--7-7-7--7-7-7-7-7--7-7-7-7-5---------7---5----7----|
E--5-5-5-5-5--5-5-5--5-5-5-5-5--5-5-5-5-----------5---3----5----|
pm.....................................
Then Play INMEDIATELY:
e-----------|
B-----------|
G-----------|
D-5-2-5-----|
A-3-0-3-5-2-|
E-------3-0-|
BRIDGE:

To paradise with pleasure haunted haunted by fear
e-------------------------------------------------------------------|
B-------------------------------------------------------------------|
G-------------------------------------------------------------------|
D--7----------------------------------------------------------------|
A--5-----------7-------------------3-----------------2-2--2-2-2--2-2|
E--------------5-------------------1-----------------0-0--0-0-0--0-0|
CHORUS:
1)
A sin for him Desire within Desire within
e-----------------------------------------------|
B-----------------------------------------------|
G-----------------------------------------------|
D--2--------------------------------------------|
A--0------------------------5-------------3-----|
E---------------------------3-------------1-----|
2)
A burning veil For the bride too dear for him
e---------------------------------------------------|
B---------------------------------------------------|
G---------------------------------------------------|
D--2------------------------7-----------------------|
A--0------------------------5--------------5----5---|
E------------------------------------------3----3---|
1) A sin for him Desire within Desire Within
2) Fall in love with your deep dark sin.
Then Play:
............RIFF A..............
e-------------------------------|--------------------------------|
B-------------------------------|--------------------------------|
G-------------------------------|--------------------------------|
D--2-----2-3-----3-2-----2-0-0--|-2-----2-3-----3-2-----2-2p0---0|
A----0-0-----0-0-----0-0--------|---0-0-----0-0-----0-0-------3--|
E-------------------------------|--------------------------------|
pm...............................................................
E----------------------|
B----------------------|
G----------------------|
D--2--5-2-5------------|
A--0--3-0-3-5-2-1---5--|
E-----------3-0-3---3--|
VERSE 2:
I am the Fallen You are what my sins enclose

e-------------------------------------------------
B-------------------------------------------------
G-------------------------------------------------Then RIFF A
D----------------------------------5--------------
A--7-7-7-7-7--7-7-7--7-5-----------3--5-----------
E--5-5-5-5-5--5-5-5--5-3--------------3-----------
pm....................
Lust is as not creative as its discovery
e--------------------------------------------|
B--------------------------------------------|
G--------------------------------------------|
D---------------------------7----------------|
A--7-7-7-7-7--7-7-7--7-7-7--5-------7-5-7----|
E--5-5-5-5-5--5-5-5--5-5-5----------5-3-5----|
pm............................
Then Play INMEDIATELY:
e-----------|
B-----------|
G-----------|
D-5-2-5-----|
A-3-0-3-5-2-|
E-------3-0-|
BRIGDE
CHORUS
SOLO:
e---------------------------------------------------12--
B------------------------------10----------13-10-12-----
G----------------------------9----7-9h10-9--------------
D---------------------7-6-10----------------------------
A-----------------5-7-----------------------------------
E--3/5-5-5-5-5--5---------------------------------------
e---------------------------------------------------------------
B---------------------------------------------------------------
G------------------------------------------------------------9--
D-129----9/10-9-9h10----------9-----9-10-9-------12-10-9------12
A------10-------------12-11-12----12--------12-10---------10----
E---------------------------------------------------------------
e----------------------------------------24-|
B-----------------12--12-10-9---------12------|
G-10-9-12-10-9----------------12-10-9---------|
D--------------10-----------------------------|
A---------------------------------------------|
E---------------------------------------------|
Play this twice:
e------------------------------------------
B------------------------------------------
G------------------------------------------
D--2---2-3--0-3-5--5-5-2-0-2-2---7-2-5-----
A----0-----------------------0-5-5-0-3-5-2-
E------------------------------3-------3-0-
Then:
e------------------------------------------------------
B------------------------------------------------------
G----------------------------5-------7-------7/8-7-5-7-
D--5---5-6--5-6-8--8-8-5-3-5---6-5-6---6-5-6-----------
A----3-------------------------------------------------
E------------------------------------------------------
e---------------------------------------------------------
B---------------------------------------------------------
G---------------------------5-------7-------5-------5-----
D-5---5-6--5-6-8--8-8-5-3-5---6-5-6---6-5-6---6-5-6--6-5-3
A---3-----------------------------------------------------
E---------------------------------------------------------
LAST PART (Play inmediately)
Bless me, undress me Pick your prey in a wicked way
God I must confess I do envy the sinners
e------------------------------------------
B------------------------------------------
G------------------------------------------
D-2---2-3--0-3-5--5-5-2-0-2-2---7-2-5------
A---0-----------------------0-5-5-0-3-5-2--
E-----------------------------3-------3-0--
Then play:
e-------------------|
B-------------------|
G-------------------|
D-------------------|
A-3-3-3--3-3--5-5-7-|
E-1-1-1--1-1--3-3-5-|
In this part you only hear Tarjaґs voice:
A sin for him
Desire within
A burning veil
For the bride too dear for him
LAST CHORUS (Itґs the same thing but you follow a C pattern)
1)
A sin for him Desire within Desire within
e-----------------------------------------------|
B-----------------------------------------------|
G-----------------------------------------------|
D--5--5--5--5--5--5--5--5-----------------------|
A--3--3--3--3--3--3--3--3---8-------------6-----|
E---------------------------6-------------4-----|
2)
A burning veil For the bride too dear for him
e---------------------------------------------------|
B---------------------------------------------------|
G---------------------------------------------------|
D--5--5--5--5--5--5--5--5---10----------------------|
A--3--3--3--3--3--3--3--3---8--------------8----8---|
E------------------------------------------6----6---|
1) A sin for him Desire within Desire Within
2) Fall in love with your deep dark sin.
OUTRO:
e--------------------------------------------------------|
B--------------------------------------------------------|
G--------------------------------------------------------|
D-5-----5-6-----6-5-----5-6-----6-5-----5-6-8-5-8-----5-5|
A---3-3-----3-3-----3-3-----3-3-----3-3-----6-3-6-8-5-3-3|
E-------------------------------------------------6-3----|
Thatґs it, keep listening to Nightwish and have a Nice Day.
Viva Mexico.




Ваше мнение



Капча