Author/Artist: Nightwish
Title: Over the Hills and Far Away
Transcribed by: Robert Karlsson
Email: [email protected]
[email protected]0-0-5-0-0-|--
-----|-------------|-------------|---------3---|-------------|-------------|--
-----|-------------|-------------|-------------|-------------|-------------|--
-----|-------------|-------------|-------------|-------------|-------------|--
-----|-------------|-------------|-------------|-------------|-------------|--
-----|-------------|-------------|-------------|-------------|-------------|--
Guitar solo (00:46)
-7-0-0-8-5-7-|-8-5-5-5-7-8-|-10-8-7--------|---0-0-5-0-0|-7-0-0-8-7-5-|-7-0-0-
-------------|-------------|--------10-8-7-|-8----------|-------------|-------
-------------|-------------|---------------|------------|-------------|-------
-------------|-------------|---------------|------------|-------------|-------
-------------|-------------|---------------|------------|-------------|-------
-------------|-------------|---------------|------------|-------------|-------
-0---0-|-2-5-3-2-0-2-|-3-0-0-5-0-0-|-7-0-0-8-5-7-|-8-5-5-5-7-8-|-10-8-7-------
---3---|-------------|-------------|-------------|-------------|--------10-8--
-------|-------------|-------------|-------------|-------------|--------------
-------|-------------|-------------|-------------|-------------|--------------
-------|-------------|-------------|-------------|-------------|--------------
-------|-------------|-------------|-------------|-------------|--------------
---|--------------------------------------------------------------------------
-7-|--------------------------------------------------------------------------
---|--------------------------------------------------------------------------
---|--------------------------------------------------------------------------
---|--------------------------------------------------------------------------
---|--------------------------------------------------------------------------




Ваше мнение



Капча