#----------------------------------PLEASE NOTE----------------------------------#
# This file is the author's own work and represents their interpretation of the #
# song. You may only use this file for private study, scholarship, or research. #
#-------------------------------------------------------------------------------#
LAPPI 1: ER?MAAJ?RVI
by NIGHTWISH
(From the Album ANGELS FALL FIRST)
Copyright 1998 Century Media Records
Version 1.0 - January 2002
Transcribed by Jouko Karvinen
E-mail : [email protected]
/ or | slide (up, down)
(7) | Extended note
PLEASE NOTE! All the guitars are acoustic and GTR 3
strums the chords given above the tab.
Flute has been arranged to guitar so that
it's in same pitch (not 8va) as the flue
because it will be easy to create notation
for the real flute.
TUNING E (E,A,D,G,H,e)
RIFF 1:
Em
|-3-3---2--0-|---------------|-3-3---2--0-|---------------|
|------------|---------------|------------|---------------|
|------------|---------------|------------|---------------| GTR 1
|------------|---------------|------------|---------------|
|------------|---------------|------------|---------------|
|------------|---------------|------------|---------------|
| | | | |
| | | | |
|------------|-7-7---7-------|------------|-7-7---7-------|
|------------|----------10-8-|------------|----------10-8-|
|------------|---------------|------------|---------------| GTR 2
|------------|---------------|------------|---------------|
|------------|---------------|------------|---------------|
|------------|---------------|------------|---------------|
RIFF 2:
Em Dm G
||-3--3--2--0---------------------|--3--3--2--0---------(0)|-3-3/5-5/7-7-(7)||
||-------------3--5--5--3--0----0-|------------------------|-----------------||
||.-------------------------------|------------------------|---------------.-|| GTR 1
||.-------------------------------|------------------------|---------------.-||
||--------------------------------|------------------------|-----------------||
||--------------------------------|------------------------|-----------------||
|| | | ||
|| | | ||
||-------------7--7--7------------|------------------------|-----------------||
||----------------------10-8---(8)|--7--8--8--7--8--10--12-|-/7--7--8--8-----||
||.-------------------------------|------------------------|----------------.|| GTR 2
||.-------------------------------|------------------------|----------------.||
||--------------------------------|------------------------|-----------------||
||--------------------------------|------------------------|-----------------||
RIFF 3:
||--0---0-0-0-0--0-|----0-0-0--0-|-0---0-0-0-0--0-|----1-1---3-3--||
||--1---1-1-1-1--0-|---1--1-1--0-|-1---1-1-1-1--0-|---3--3---0-0--||
||.-2---2-2-2-2--0-|--2---2-2--0-|-2---2-2-2-2--0-|--2---2---0-0-.|| GTR 3
||.-2---2-2-2-2--2-|-2----2----2-|-2---2-2-2-2--2-|-0--------0---.||
||-----------------|-------------|----------------|---------------||
||-----------------|-------------|----------------|---------------||
Play RIFF 2
Play RIFF 3
RIFF 4: (Not sure about the chords)
Em Dm Eb E D
||-12-|-12--15---15---14---12---10-|--17--17--20--19--17--15--14-----|
||----|----------------------------|---------------------------------|
||.---|----------------------------|---------------------------------| Flute
||.---|----------------------------|---------------------------------| /GTR 1
||----|----------------------------|---------------------------------|
||----|----------------------------|---------------------------------|
Kautta er?maaj?rven Matkaa kulkuri yksinainen
Kaipuu menneisyyteen kiirii ilmassa huutoina kotkien
C G Am D
|--12-|-12-12--15--15----------------|-20---(20)-19------17----(17)-||
|-----|----------------15------15----|---------------20-------------||
|-----|--------------------16--------|-----------------------------.|| Flute
|-----|------------------------------|-----------------------------.|| /GTR 1
|-----|------------------------------|------------------------------||
|-----|------------------------------|------------------------------||
N?kee lammella joutsenparven vapauttaan itkevan
Ikij?rvelt? turvatulta k?y matka vuorten taa
Play RIFF2 2x
ENDING
|-0---------(0)-|
|-0---------(0)-|
|-0---------(0)-|
|-2---------(2)-|
|-2---------(2)-|
|-0---------(0)-|




Ваше мнение



Капча