From album "Wishmaster"
Transcribed by: X X X
Email: [email protected]
Lets the ... Ruck´n Roll! ;-)
Hey it´s a great Song and very easy to play ,so have a lot of FUN with it
and all Thanks to Mr.Tuomas Holopainen!!!(He is the Ging of Gothik!)
At first the flute enters!
And than the Guitar Intro!(There are two Guitars playing, so make your choise! )
Guitar1:
E:------------------------------------------------------------------------------|
B:--10-10/11-11-1110-8-13-13/15-10-108-6-6/8-8--------------------------------|
G:-----------------------------------------------109-109-7--------------------|
D:------------------------------------------------------------------------------|
A:------------------------------------------------------------------------------|
E:------------------------------------------------------------------------------|
Guitar2:
E:------------------------------------------------------------------------------|
B:--3-3-3-3-3-3-3-3-3-3-3-3-3-3-3-3-3-3-3-3-3-3-3-3-3-3-3-3-3-3-3-3-------------|
G:--2-2-2-2-2-2-2-2-3-3-3-3-3-3-32-0-0-0-0-0-0-0-0-2-2-2-2-2-2-2p0--3-5-7------|
D:--0-0-0-0-0-0-0-0-0-0-0-0-0-0-0-0-0-0-0-0-0-0-0-0-0-0-0-0-0-0-0-0--3-5-7------|
A:-------------------------------------------------------------------1-3-5***---|
E:------------------------------------------------------------------------------|
x x x x x x x x x x x x x x x x
And than the 2nd time again!
Guitar1: (Emppu Vourinen)
E:----------------------------------------8-86---------------------------------|
B:--10-10/11-11-1110-8-13-13/15-10-10/11-------8-------------------------------|
G:------------------------------------------------109-109-7-------------------|
D:------------------------------------------------------------------------------|
A:------------------------------------------------------------------------------|
E:------------------------------------------------------------------------------|
Guitar2: (Emppu Vourinen)
E:------------------------------------------------------------------------------|
B:--3-3-3-3-3-3-3-3-3-3-3-3-3-3-3-3-3-3-3-3-3-3-3-3-3-3-3-3-3-3-3-3-------------|
G:--2-2-2-2-2-2-2-2-3-3-3-3-3-3-32-0-0-0-0-0-0-0-0-2-2-2-2-2-2-2p0--3-5-7------|
D:--0-0-0-0-0-0-0-0-0-0-0-0-0-0-0-0-0-0-0-0-0-0-0-0------------------3-5-7------|
A:-------------------------------------------------------------------1-3-5***---|
E:------------------------------------------------------------------------------|
x x x x x x x x x x x x x x x x
Than Tarja enters with her sweet voice! "Come wet a widow´s eye..."
Guitar1:
E:----------------------------------------------------|
B:----------------------------------------------------|
G:-4---------7----4-----------------------------------|
D:-4---------7-2--4--------2---------5--7---2---------|
A:-2**-**-**-5-2--2**-**-*-2---------5--7---2---------|
E:-------------0-----------0**-**-**-3--5---0**-**-*--|
x x x x
Guitar1:
E:---------------------------------------------------------------------->
B:--5-0-0-7-0-8-0-0-5-0-0-7-0-8-0-0-5-0-0-7-0-8-0-10-0-8-0-7-0-8-0-0---->
G:---------------------------------------------------------------------->
D:---------------------------------------------------------------------->
A:---------------------------------------------------------------------->
E:---------------------------------------------------------------------->
x x x x x x x x x x x x x x x x x x x

Guitar1:
E:--5-----7---8-----5-----7---8-----5-----7---8-----5------------------|
B:---------------------------------------------------------------------|
G:----4-4---4---4-4---4-4---4---4-4---4-4---4---4-4-----5--------------|
D:------------------------------------------------------5--5-----------|
A:------------------------------------------------------3--5-----------|
E:---------------------------------------------------------3-----------|
x x x x x x x x x x x x x x x A.H
And Tarja enters again! "Come cover me..."
Guitar1: Play 2 Times!
E:------------------------------------------------------------------------------|
B:--3-3-3-3-3-3-3-3-3-3-3-3-3-3-3-3-3-3-3-3-3-3-3-3-3-3-3-3-3-3-3-3-------------|
G:--2-2-2-2-2-2-2-2-3-3-3-3-3-3-32-0-0-0-0-0-0-0-0-2-2-2-2-2-2-2p0--3-5-7------|
D:--0-0-0-0-0-0-0-0-0-0-0-0-0-0-0-0-0-0-0-0-0-0-0-0------------------3-5-7------|
A:-------------------------------------------------------------------1-3-5------|
E:------------------------------------------------------------------------------|
x x x x x x x x x x x x x x x x
Guitar1: The short and easy solo!:-)
E:------------------------------------------------------------------------------>
B:-------------------------5/6---7/8----8-10-11-10h11p10------------------------>
G:---------7---7/8-8-87-5-----5-----7------------------------------------------>
D:--5-7-8------------------------------------------------15--13-12-10----------->
A:------------------------------------------------------------------------------>
E:------------------------------------------------------------------------------>
x x
E:------------------------------------------------------------------------------|
B:------------------------------------------------------------------------------|
G:------------------------------------------------------------------------------|
D:-----------12-----------------------------------------------------------------|
A:--10-12-13----13-12-10---8~-------5~------------------------------------------|
E:------------------------------------------------------------------------------|
x x x
Tarja: "For me for you...."
Guitar1: Play 2 times:
E:-------------------------------------------|
B:-------------------------------------------|
G:--7-----------------7----------5-----------|
D:--7----------3------7----------5----5------|
A:--5**-**-**--3------5**-**-**--3----5------|
E:-------------1----------------------3------|

Tarja: "Not a world but your fine grace..."
Guitar1:
E:----------------------------------------------------|
B:----------------------------------------------------|
G:-4---------7----4-----------------------------------|
D:-4---------7-2--4--------2---------5--7---2---------|
A:-2**-**-**-5-2--2**-**-*-2---------5--7---2---------|
E:-------------0-----------0**-**-**-3--5---0**-**-*--|
x x x x
Guitar1:
E:---------------------------------------------------------------------->
B:--5-0-0-7-0-8-0-0-5-0-0-7-0-8-0-0-5-0-0-7-0-8-0-10-0-8-0-7-0-8-0-0---->
G:---------------------------------------------------------------------->
D:---------------------------------------------------------------------->
A:---------------------------------------------------------------------->
E:---------------------------------------------------------------------->
x x x x x x x x x x x x x x x x x x x

Guitar1:
E:--5-----7---8-----5-----7---8-----5-----7---8-----5------------------|
B:---------------------------------------------------------------------|
G:----4-4---4---4-4---4-4---4---4-4---4-4---4---4-4-----5--------------|
D:------------------------------------------------------5--5-----------|
A:------------------------------------------------------3--5-----------|
E:---------------------------------------------------------3-----------|
x x x x x x x x x x x x x x x A.H
Only Tarja:"Come cover me with you...

Guitar1: Tarja:" COME COVER COME COVER ME NOW !"
E:---------------------------------------------------------------------------->
B:---------------------------------------------------------------------------->
G:--3--5-7-------------------------------------------------------------------->
D:--3--5-7-------------------------------------------------------------------->
A:--1--3-5***--5-----5-----5---6---6---6---6p5-3-----3-----3---5---5---5--5p3->
E:---------------3-3---3-3---3---3---3---3-------3-3---3-3---3---3---3---3---->
x x x x x x x x x x x x x x x x
--------------|
--------------|
--8-----------|
--8--3--5-----|
--6--3--5-----|
-----1--3-----|
Come wet a widow`s eye
Cover the night with your love
Dry the rain from my beaten face
Drink the wine the red sweet taste of mine
Come cover me with you
For the thrill
Till you will take me in
Come comfort me in you
Young love must
Live twice only for us
For me
For you
Time devours passion`s beauty
With me
With you
In war for the love of you
(Tonight any dream will do)
Not a world but your fine grace
Seduction in sleepwalker`s land
November dressed in May on your face
Holding us now the lovecropper`s hand
Come cover me with you...




Ваше мнение



Капча