Artist : Nightwish
Song : Bless The Child
Album : Century Child
Dropped-D tuning : DADGBe
0:31 Intro
e:------------------------------------------------|
B:------------------------------------------------|
G:------------------------------------------------|
D:-2-2-----2-2---------0---------------0----------|
A:-2-2-----2-2-----0-0-0---0-0-0---0-0-0---0-0----|
D:-2-2-----2-2-----0-0-0---0-0-0---0-0-0---0-0----|
pm. . pm. . . pm. . pm. .
1:07 You have to listen to get the rythm
e:------------------------------------------|
B:------------------------------------------|
G:------------------------------------------|
D:------------------------------------------|
A:-2-2-2-2-2--2-2--------0-0-0-0-0-0-0-0-0--|
D:-2-2-2-2-2--2-2--------0-0-0-0-0-0-0-0-0--|
pm. . . . . . . pm. . . . . . . . .
1:38 Verse
e:---------------------------------------------------------------|
B:---------------------------------------------------------------|
G:---------5--------------------------------------2-----------5--|
D:-0---3---5------------------------------3---5---2---2-2-2-3-5--|
A:-0---3---3---3-2-0-0-0-0--3-2-0-0-0-0---3---5---0---0-0-0-3-3--|
D:-0---3-------3-2-0-0-0-0--3-2-0-0-0-0---3---5-------------3----|
pm. . . . . .pm. . . . . . pm. . .
1:54 Chorus
e:--------------------------------------|
B:--------------------------------------|
G:-----2-------5-------------2----------|
D:-0---2---3---5-5---0---5---2----------|
A:-0---0---3---3-5---0---5---0------3-2-|
D:-0-------3-----5---0---5----------3-2-|
pm. .
2:10
e:-----------------------|
B:-----------------------|
G:-----------------------|
D:-----------------------|
A:-0-0-0-0-0-0-0-0-0-0---|
D:-0-0-0-0-0-0-0-0-0-0---|
pm. . . . . . . . . .
2:26 Verse
e:------------------------------------------------------------------|
B:------------------------------------------------------------------|
G:---------5---------------2--------------2-----------2-----------5-|
D:-0---3---5---------------0--------------0---3---5---2---2-2-2-3-5-|
A:-0---3---3---3-2-0-0-0-0----3-2-0-0-0-0-----3---5---0---0-0-0-3-3-|
D:-0---3-------3-2-0-0-0-0----3-2-0-0-0-0-----3---5-------------3---|
pm. . . . . . pm. . . . . . pm. . .
2:41 Chorus
e:-------------------------------------------------------------|
B:-------------------------------------------------------------|
G:-----2-------5-------------2---------2-------5-------------2-|
D:-0---2---3---5-5---0---5---2-----0---2---3---5-5---3---5---2-|
A:-0---0---3---3-5---0---5---0-----0---0---3---3-5---3---5---0-|
D:-0-------3-----5---0---5---------0-------3-----5---3---5-----|
3:15 Bridge
e:------------------|
B:------------------|
G:------------------|
D:----------------5-|
A:-0-0-0-0-0-0-0--3-|
D:-0-0-0-0-0-0-0----|
pm. . . . . . .
3:22
e:----------------------------------------------------------------|
B:----------------------------------------------------------------|
G:----3--5-----------3--5-----------3----5-----------3----5--3----|
D:-0--3--5--0-----0--3--5--3-----5--3--3-5--0-----5--3--3-5--3--3-|
A:-0--1--3--0-----0--1--3--3-----5--1--3-3--0-----5--1--3-3--1--0-|
D:-0--------0-----0--------3-----5-----3----0-----5-----3---------|
3:45 Play always the same chord
e:--------------------------------------|
B:--------------------------------------|
G:--------------------------------------|
D:--------------------------------------|
A:-5-5-5-5-5-5-5-5-5-5-5-5-5...----3-2--|
D:-5-5-5-5-5-5-5-5-5-5-5-5-5...----3-2--|
pm. . . . . . . . . . . . .
4:03
e:-------------------------------------------|
B:-------------------------------------------|
G:-------------------------------------------|
D:-------------------------------------------|
A:-0-0-0-0-0-0-0-0-3-2---0-0-0-0-5-5-5-5-3-2-|
D:-0-0-0-0-0-0-0-0-3-2---0-0-0-0-5-5-5-5-3-2-|
pm. . . . . . . . . . pm. . . . . . . . . .
4:15
e:---------------------------------|
B:---------------------------------|
G:---------------------------------|
D:-2-----2-----2-----2-----2-------|
A:-0-0-0-0-0-0-0-0-0-0-0-0-0-3-2-0-|
D:---------------------------3-2-0-|
pm. . . . . . . . . . . . .
4:45
e:-----------------------|
B:-----------------------|
G:-------2-2-2-2-2-2-----|
D:-2-2-2-2-2-2-2-2-2-----|
A:-0-0-0-0-0-0-0-0-0-3-2-|
D:-------------------3-2-|
pm. . . . . .
4:50 Chorus
e:----------------------------------------------------------------|
B:----------------------------------------------------------------|
G:----------------------------------------------------------5-----|
D:--------------------2-----2-----2-------------------------5---5-|
A:-0-----0-----0------0-0-0-0-0-0-0-0-0--3-----3-----3------3---5-|
D:-0-0-0-0-0-0-0-0-0---------------------3-3-3-3-3-3-3-3-3------5-|
pm. . . . . . . . .pm. . . . . . . . .pm. . . . . . . . .
e:--------------------------------------|
B:--------------------------------------|
G:--------------------------------------|
D:--------------------------------------|
A:-3-----3-----3------5-----5-----5-----|
D:-3-3-3-3-3-3-3-3-3--5-5-5-5-5-5-5-5-5-|
pm. . . . . . . . .pm. . . . . . . . .
5:02 Fill in after chorus
e:----------------------------------------------------|
B:----------------------------------------------------|
G:----------------------------------------------------|
D:-----------------2-----------------3---2------------|
A:-0-0-2-0-3-0-5-0---0-5-0-3-0-2-0-0---0---0-3-0--3-2-|
D:------------------------------------------------3-2-|
pm. . . . . . . . . . . . . . . . . . . . . . .
5:06 Play this two times
e:-------------------------------------------------------------------------|
B:-------------------------------------------------------------------------|
G:-------------------------------------------------------------------------|
D:-------------------------------------------------------------------------|
A:-2h3-0-0-0-0-0-0--2h3-0-0-0-0-0-0--2h3-0-0-0-0-0-0--2h3-0-0-0-0-0-0--5-5-|
D:-2h3-0-0-0-0-0-0--2h3-0-0-0-0-0-0--2h3-0-0-0-0-0-0--2h3-0-0-0-0-0-0--6-6-|
pm. . . . . . pm. . . . . . pm. . . . . . pm. . . . . .
Then play the intro riff until the end.




Ваше мнение



Капча