Nickelback
Woke Up This Mornin'
Silver Side Up
Josh S.
Tune down 1 whole step and in Drop D

intro
--------------------------------
--------------------------------
--------------------------------
-----12---12-----12---12----1010
--------9-----------9--------9-9
--0-0--------0-0---------0-0----

--------------------------------
--------------------------------
--------------------------------
-----12---12-----12---12-----8-8
--------9-----------9-----------
--0-0--------0-0---------0-0-8-8

--------------------------------
--------------------------------
--------------------------------
-----12---12-----12---12-----3-3
--------9-----------9-----------
--0-0--------0-0---------0-0-3-3

--------------------------------
--------------------------------
--------------------------------
------5-------------------------
------3------3------------------
---0------0--3------------------

VerseOutro PM
--------------------------------
--------------------------------
--------------------------------
-----12---12-----12---12----10--
--------9-----------9--------9--
--0-0--------0-0---------0-0----

--------------------------------
--------------------------------
--------------------------------
-----12---12-----12---12-----8--
--------9-----------9-----------
--0-0--------0-0---------0-0-8--

--------------------------------
--------------------------------
--------------------------------
-----12---12-----12---12-----3--
--------9-----------9-----------
--0-0--------0-0---------0-0-3--

--------------------------------
--------------------------------
--------------------------------
------5-------------------------
------3------3------------------
---0------0--3------------------

--------------------------------
--------------------------------
--------------------------------
-----12---12-----12---12----10--
--------9-----------9--------9--
--0-0--------0-0---------0-0----

Pre-Chorus 1
-------------------------------------
-------------------------------------
-------------------------------------
-----12---12-----10--12----12--14-- (2x)
--------9----------------------------
--0-0--------8-8---------10----------

-----------------------------------------
-----------------------------------------
-----------------------------------------
-----12---12-------10--12------12--14--
--------9--------------------------------
--0-0--------10-10---------12-12---------

Pre-Chorus 2 PM
--------------------------------------------------
--------------------------------------------------
-----3---3---3-------5---5---5---3-3-3-3--5-5-5-5-
---3---3---3---3---5---5---5---5-3-3-3-3--5-5-5-5-
-1---------------3---------------1-1-1-1--3-3-3-3-
--------------------------------------------------

Chorus
--------------------------------
--------------------------------
--------------------------------
------------------8-8-8--3-3-3- (2x)
-----7-8-9---9------------------
---0-------0------8-8-8--3-3-3-

--------------------------------------------------------
--------------------------------------------------------
--------------------------------------------------------
------------------8-8-8--3-3-3--8-8-8--3-3-3--5--3-
-----7-8-9---9------------------------------------------
---0-------0------8-8-8--3-3-3--8-8-8--3-3-3--5--3-

Interlude PM
----------------------------------
----------------------------------
----------------------------------
----------------------------------
-----7-8-9--8-5-3-----7-8-9-------
---0----------------0-------6-5-3-

----------------------------------
----------------------------------
----------------------------------
----------------------------------
----7-8-9--8-5-3-----7-8-9--------
--0----------------0-------5b-5-3-

----------------------------------
----------------------------------
----------------------------------
----------------------------------
-----7-8-9--7-3-5-----7-8-9-------
---0----------------0-------7-3-5-

----------------------------------
----------------------------------
----------------------------------
----------------------------------
-----7-8-9--7-3-5-----7-8-9-------
---0----------------0-------7-3-5-
Order:

Intro
Verse
Pre-Chorus 1
Pre-Chorus 2
Chorus
Verse
Pre-Chorus 1
Pre-Chorus 2
Chorus
Verse
Interlude
Pre-Chorus 2
Chorus
Outro




Ваше мнение



Капча