Intro:

u=upstrum
d=downstrum

d u d u d d d u d d u d d d u d
e------------------------------------
b---------------------------------
g-4-4-4-4-7-7-7-7-7-9-9-10-9-4-4-4
d-4-4-4-4-7-7-7-7-7-9-9-10-9-4-4-4
a-2-2-2-2-5-5-5-5-5-7-7-8 -7-2-2-2
e---------------------------------

d u d u d d d u d d d d d d
e------------------------------
b------------------------------
g-4-4-4-4-7-7-7-7-7--4-4--4-4-4
d-4-4-4-4-7-7-7-7-7--4-4--4-4-4
a-2-2-2-2-5-5-5-5-5--2-2--2-2-2
e------------------------------

I'll try to get the rest of the song
in as soon as possible




Ваше мнение



Капча