As far I can tell this is
not too shabby. I don't really know the effects
except for distortion. You'll have to find out timing
and repetition on your own for some parts. e-mail me
if you have some corrections or praise at:
[email protected] Have fun!! :)
Tuning: Drop D (E B G D A D) high to low
|------------------------------
|------------------------------
|------------------------------
|------------------------------
|---------5-5-5-7b-5-7b-7b-----
|-99-7-9------------------9-9-9
|------------------------
|------------------------
|------------------------
|-----------------9-9-999
|---------5-5-5-5-9-9-999
|-99-7-9----------7-7-777
Try and play those last
chords close to the
bridge of the guitar.
|------------------------------
|------------------------------
|-----------------------------9
|9--9--9--7-7-7---------------9
|9--9--9--7-7-7-7b-5-7b-7b----7
|11-11-11-9-9-9-----------9-9-
|------------------------------
|------------------------------
|-----------------------------9
|9--9--9--7-7-7---------------9
|9--9--9--7-7-7-7b-5-7b-7b----7
|11-11-11-9-9-9-----------9-9-
|--------
|--------
|--------
|---5----
|-5--5-5-
|7-7--7--
|-----------------
|-----------------
|-----------------
|---5-----5-5--5-5 --9
|----5-5--5-5--5-5second play this ending--9
|7-7--7---7-7--7-7 this ending --7
x4
|-------------
|-------------
|5-5-5-5-5-5-5
|5-5-5-5-5-5-5
|7-7-7-7-7-7-7
(palm muted)
|--------
|--------
|--------
|---5----
|-5--5-5-
|7-7--7--
|-----------------
|-----------------
|-----------------
|---5-----5-5--5-5
|----5-5--5-5--5-5
|7-7--7---7-7--7-7
second time instead of power chords slide
two lowest strings down.
|----------------------------
|----------------------------
|-------------------------9-9
|7/8-7-7-7/8-7-7-7/8-7-7--9-9
|7/8-7-7-7/8-7-7-7/8-7-7--7-9
|5/6-5-5-5/6-5-5-5/6-5-5
Now repeat intro
Sorry, I couldn't figure
out the solo. But this
is repeated behind it.
|------------------------------
|------------------------------
|-----------------------------9
|9--9--9--7-7-7---------------9
|9--9--9--7-7-7-7b-5-7b-7b----7
|11-11-11-9-9-9-----------9-9-
|------------------------------
|------------------------------
|-----------------------------9
|9--9--9--7-7-7---------------9
|9--9--9--7-7-7-7b-5-7b-7b----7
|11-11-11-9-9-9-----------9-9-
Now several parts of the song are repeated.
You can figure it out by listening to the song.




Ваше мнение



Капча