Artist: Nickelback
Title: Where Do I Hide
Album: Silver Side Up
Transcribed by: Alex(Nickelback)
Email: [email protected]

Drop D

Riff 1
D---------------------------------------|------------------7-7--7-7-7----------
A---------------------------------------|------------------7-7--7-7-7----------
D-9-9-7/--12-1212-xx--14-12-16-14-9-9-9-|-9-9-7/--12-1212--7-7--7-7-7----------

Riff 2
E------------------------------------------------------------------------------
B------------------------------------------------------------------------------
G-5-55--2------------------5-55--2---------------------------------------------
D-5-55--2---------------9--5-55--2--14-12-14/16-14--9-99-9---------------------
A-3-33--0---7-5/9-7-----9--3-33--0--14-12-14/16-14--9-99-9---------------------
D-------------------9-9-9-----------14-12-14/16-14--9-99-9---------------------


Riff 3
D-------------9--------------------------------------------------------2-------
A-----9---9---9-----------9-7-9--9-9-9----------9-7-9-----------9-7-9--0-------
D-9-9-9-7-9-7-9---9-7-0-7-9-7-9--9-9-9--9-7-0-7-9-7-9---9-7-0-7-9-7-9----------




Ваше мнение



Капча