Too Bad-Nickelback
Silver Side Up
Drop C:
C G C F A D
Intro: clean w/ tremolo
Riff A
d-----------------------------------------------------------------
a-----------------------------------------------------------------
f-----------------------------------------------------------------
c-7---7---7---7---7---7---7---7-----------------------------------
g-----------------------------------------------------------------
c---0---0---0---0---0---0---0---0---------------------------------
Verses: Riff A1
d-----------------------------------------------------------------
a-----------------------------------------------------------------
f-----------------------------------------------------------------
c-7---7---7---7---7---7---7---7---7---7---7---7---7---7---7---7---
g-----------------------------------------------------------------
c---0---0---0---0---3---3---3---3---5---5---5---5---5---5---5---5-
Chorus: Fig 1.
d-----------------------------------------------------------------
a-----------------------------------------------------------------
f-----------------------------------------------------------------
c-8-8-8-8-8-8-8-8-3-3-3-3-3-3-3-3---------------------------------
g-8-8-8-8-8-8-8-8-3-3-3-3-3-3-3-3-3h5-5-3-3h5-5-3-3h5-5-3-3h5-5-5-
c-8-8-8-8-8-8-8-8-3-3-3-3-3-3-3-3-3h5-5-3-3h5-5-3-3h5-5-3-3h5-5-5-
Interlude:
d-----------------------------------------------------------------
a----------------------------------------------------10rb---------
f------------------------------------------12rb-------------------
c-----------------------------------------------------------------
g-----------------------------------------------------------------
c-0---------------3---------------5-------------------------------
Guitar Solo:
Gtr 1.
d-----------------------------------------------------------------
a-----------------------------------------------------------------
f-12b---rb10----10---------10--h12~~~~--------10------------------
c------------------12--------------------------------------------
g-----------------------------------------------------------------
c-----------------------------------------------------------------
Gtr 2.
d-----------------------------------------------------------------
a-----------------------------------------------------------------
f-------------------------10/12---/10-----------------10-12~~~~~~-
c---------12----12~~~~~~~---------------/12~~~~~~~~---------------
g-----------------------------------------------------------------
c-----------------------------------------------------------------
Gtr 1.
d-----------------------------------------------------------------
a-----------------------------------------------------------------
f---------------------------12b---------12-10----10---------------
c---------------------------------------------12----1210-10-12---
g-----------------------------------------------------------------
c-----------------------------------------------------------------
Gtr 2.
d-----------------------------------------------------------------
a-----------------------------------------------------------------
f-10h12---12--12b-12b--12rb-------rb12---12-----------------------
c-------------------------------------------12-10--------------10-
g-------------------------------------------------12----10--12----
c-----------------------------------------------------------------
Gtr 1.
d-----------------------------------------------------------------
a----------------------------------10-13--------------------------
f------10-12~~~p10---12-12b-----12-------12brp10------------------
c-12--------------------------------------------------------------
g-----------------------------------------------------------------
c-----------------------------------------------------------------
Gtr 2.
d-----------------------------------------------------------------
a-----------------------------------------------------------------
f-------10-12b--12-12-10-12b~~~~~~~-rb12-10-10-12b---12-10--------
c-12-------------------------------------------------------12-12--
g-----------------------------------------------------------------
c-----------------------------------------------------------------
Gtr 1.
d-----------------------------------------------------------------
a-----------------------------------------------------------------
f-----------------------------------------------------------------
c----------------------------------12---------12--/10-10---------
g----------------------------------------------------------12-10--
c-----------------------------------------------------------------
Gtr 2.
d-----------------------------------------15----15b--15b--15brp13-
a-----------------------------------------------------------------
f---------10--12-10---10-12--12b---rb12---------------------------
c---10-12---------------------------------------------------------
g-----------------------------------------------------------------
c-----------------------------------------------------------------
Gtr 1.
d-----------------------------------------------------------------
a-----------------------------------------------------------------
f-----------------------------------------------------------------
c------------------------10-12--12~~~~~~~~~~----------------------
g-/8-----------8-----12-------------------------------------------
c----------------------------------------------0------------------
Gtr 2.
d--/10-----/8------/8-------------------------------------------
a-------------------------/8--6/8------/6------------------------
f-----------------------------------------------------------------
c-----------------------------------------------------------------
g-----------------------------------------------------------------
c-----------------------------------------------------------------
Chorus: repeat
d-----------------------------------------------------------------
a-----------------------------------------------------------------
f-----------------------------------------------------------------
c-8-8-8-8-8-8-8-8-3-3-3-3-3-3-3-3---------------------------------
g-8-8-8-8-8-8-8-8-3-3-3-3-3-3-3-3-3h5-5-3-3h5-5-3-3h5-5-3-3h5-5-5-
c-8-8-8-8-8-8-8-8-3-3-3-3-3-3-3-3-3h5-5-3-3h5-5-3-3h5-5-3-3h5-5-5-
last bar all staccato
d-----------------------------------------------------------------
a-----------------------------------------------------------------
f-----------------------------------------------------------------
c-5---5---5---5---5---5-------------------------------------------
g-5---5---5---5---5---5-------------------------------------------
c-5---5---5---5---5---5-------------------------------------------
Outro: w/ solos
Gtr 1.
d-----------------------------------------------------------------
a--------------10-------------------------------------------------
f-----------------12-10h12~~~~~~--12b-12-10h12--p10---------------
c-/12-----------------------------------------------12---12~~~~~--
g-----------------------------------------------------------------
c-----------------------------------------------------------------
Gtr 2.
d-----------------------------------------------------------------
a-----------------------------------------------------------------
f-----------------------------------------------------------------
c-8-------------------------3-------------------5-----------------
g-8-------------------------3-------------------5-----------------
c-8-------------------------3-------------------5-----------------
Gtr 1.
d----------10----10----------10----10-----------10----------------
a-13p10-13----10----13p10-------10----13p10---------13/15~~~~~~---
f-------------------------13----------------13--------------------
c-----------------------------------------------------------------
g-----------------------------------------------------------------
c-----------------------------------------------------------------
Riff Variation:
d----------10----10----------10----10----------10-----------------
a-13p10-------10----13p10-------10----13p10-------13b~~~~~--------
f-------13----------------13----------------13--------------------
c-----------------------------------------------------------------
g-----------------------------------------------------------------
c-----------------------------------------------------------------
Gtr 1.
d-----------------------------------------------------------------
a-----------------------------------------------------------------
f--12b-12-10h12~~~~~~----12b--12----10h12~~~~-----10--------------
c----------------------------------------------------12~~~~~~~~---
g-----------------------------------------------------------------
c-----------------------------------------------------------------
that’s it
this is the best nickelback song, and the best tab..lolz
trevor jones
[email protected]




Ваше мнение



Капча