-----------------------------------------------------------------------------
SOMEDAY - Nickelback
-----------------------------------------------------------------------------
Tabbed by: Tommy
Email:[email protected]
This is a great song!
Tuning: drop D (DADGBe)
Key:
^= hold note
h= hammer on
p= pull off
x= pick scratch
/= slide up

Verse (rythem)

e|--2---2--xx---------xx--0---0--xx--0---0--xx--|
B|--3-3-3--xx---------xx--0-0-0--xx--2-2-2--xx--|
G|--4-4-4--xx--7---7--xx--2-2-2--xx--3-3-3--xx--|
D|--4-4-4--xx--5-5-5--xx--2-2-2--xx--0-0-0--xx--|
A|--2-2-2--xx--5-5-5--xx--0-0-0--xx---------xx--|
D|-------------5-5-5----------------------------|

Verse (lead)
e|--------2----|-----------|-----------|------0----|
B|------3---3--|----0------|----3-2-0--|--------3--|
G|--2/4--------|------0----|-----------|----2------|
D|-------------|--------0--|--2--------|--0--------|
A|-------------|-----------|--0--------|-----------|
D|-------------|--5--------|-----------|-----------|

Pre chorus
e|-----------------------------|
B|-----------------------------|
G|-----------------------------|
D|--2-2-2-2-2-2-2-2-7-7-7-7-7--|
A|--2-2-2-2-2-2-2-2-7-7-7-7-7--|
D|--2-2-2-2-2-2-2-2-7-7-7-7-7--|

Chorus
e|--------------------------------------|
B|--------------------------------------|
G|--------------------------------------|
D|--5-5-5-5--0-0-0-0--7-7-7-7-7-22-2-2--|
A|--5-5-5-5--0-0-0-0--7-7-7-7-7-22-2-2--|
D|--5-5-5-5--0-0-0-0--7-7-7-7-7-22-2-2--|
e|--------------------------------------|
B|--------------------------------------|
G|--------------------------------------|
D|--5-5-5-5--7-7-7-7--9-9-9-9--7-7-7-7--|
A|--5-5-5-5--7-7-7-7--9-9-9-9--7-7-7-7--|
D|--5-5-5-5--7-7-7-7--9-9-9-9--7-7-7-7--|

Solo
e|-------------------------------------------------------------------|
B|------2^2h3p2------2^2h3p2-----------------------------------------|
G|----4------------2--------------4--6-----6--4-----4--6-7---4--6-7--|
D|-----------------------------0--------2----------------------------|
A|--2------------0---------------------------------------------------|
D|-------------------------------------------------------------------|
e|------------------------------------------------------------------------|
B|-------------------55-22-33---------------------77-33-55----------5/7---|
G|--444--666-777--22-----------444--666-777--22------------4--6-7--2----4-|
D|------------------------------------------------------------------------|
A|------------------------------------------------------------------------|
D|------------------------------------------------------------------------|
Outro
e|-------------|
B|----------9--|
G|------7h9----|
D|--7h9--------|
A|-------------|
D|-------------|
=============================================================================




Ваше мнение



Капча