Nickelback-someday
tabbed by chris cavill
tuning:standard
intro and verses - 1st guitar,
e--x--x-x--4-4-4-----------2-2-2------------
B--x--x-x--5-5-5--0-2-2-2--3-3-3------------
G--x--x-x--6-6-6--0-2-2-2--4-4-4--4-4-4-4-4-
D--x--x-x--6-6-6--0-2-2-2--4-4-4--2-2-2-2-2- X4 times
A--x--x-x--4-4-4-----------2-2-2--2-2-2-2-2-
E--x--x-x-------------------------2-2-2-2-2-
on second time of the four, guitar 2 play ,
2nd guitar,
e--------------------------|---------------------------
B-5--4--5--4-----5--4------|----------5----4-----------
G-6--6--6--6-----6--6------|-----4-------------4----4--
D--------------------------|--------------------------- X2
A--------------------------|---------------------------
E--------------------------|---------------------------
pre chorus, 1st guiar

p.m p.m p.m p.m
e-------------------------------
B-------------------------------
G-------------------------------
D---2-2-2-2-2-2-2-2---7-7-7-7--7
A---2-2-2-2-2-2-2-2---7-7-7-7--7
E---2-2-2-2-2-2-2-2---7-7-7-7--7
chorus, 1st guitar,
e----------------------------------
B----------------------------------
G----------------------------------
D---5-5-5---0-0-0---7-7-7---2-2-2--
A---5-5-5---0-0-0---7-7-7---2-2-2--
E---3-3-3---0-0-0---5-5-5---2-2-2--
e--------------------------------------
B--------------------------------------
G--------------------------------------
D---5-5-5---7-7-7---9-9-9-9---7-7-7---9
A---5-5-5---7-7-7---9-9-9-9---7-7-7---7
E---3-3-3---5-5-5---7-7-7-7---5-5-5---7
VERSE 2,
PRE-CHORUS
CHORUS,
SOLO,
e--------------------------
B--------------------------
G--------------------------
D----9-(9)-11-(12)-(11)-7-9 X2
A--9-----------------------
E--------------------------
e----------------------------------------------------------------------------
B----------------------------------------------------------------------------
G----------------------6-6-6-7-7-----6-6-7-7--------6-6-6-7-7-----9-9-6-6-7-7
D----7-9---11-9--9-9-9-----------7-7----------9-9-9-----------7-7------------
A--7-----9-------------------------------------------------------------------
E----------------------------------------------------------------------------
e------------------------------------------------------
B------------------------------------------------------
G--------6-6-6-7-7-----11-11-6-6-7-7-------6-7---9-11--
D--9-9-9-----------7-7-------------------9-----7------9
A------------------------------------------------------
E------------------------------------------------------
VERSE
on last chorus, play
1st guitar,
pre chorus, 1st guiar

p.m p.m p.m p.m
e-------------------------------
B-------------------------------
G-------------------------------
D---2-2-2-2-2-2-2-2---7-7-7-7--7
A---2-2-2-2-2-2-2-2---7-7-7-7--7
E---2-2-2-2-2-2-2-2---7-7-7-7--7
e----------------------------------
B----------------------------------
G----------------------------------
D---5-5-5---0-0-0---7-7-7---2-2-2--
A---5-5-5---0-0-0---7-7-7---2-2-2--
E---3-3-3---0-0-0---5-5-5---2-2-2--
e--------------------------------------
B--------------------------------------
G--------------------------------------
D---5-5-5---7-7-7---9-9-9-9---7-7-7---9
A---5-5-5---7-7-7---9-9-9-9---7-7-7---7
E---3-3-3---5-5-5---7-7-7-7---5-5-5---7
and repeat the one above which finishes the chorus, until the song finishes.
2nd guitar,
let ring ----------> let ring --------> let ring ------------------------->
e--------------4---|------------------|--------------4----------------4----
B--------5---------|--------5------7--|---------5----------------5---------
G--4--6-----6------|--4--6-----6------|--4--6-----6-------4--6-----6-------
D------------------|------------------|------------------------------------
A------------------|------------------|------------------------------------
E------------------|------------------|------------------------------------
Then,
e--------4--------------------|--------------4-------------------|
B-----5--------/7--5----4-----|--------5----------------5-----7--|
G--6--------6--------------6--|--4--6-----6-------4--6-----6-----|
D-----------------------------|----------------------------------|
A-----------------------------|----------------------------------|
E-----------------------------|----------------------------------|
e---------------4-|------------4---|
B---------5-------|--------5-------|
G--4--6------6----|--4--6-----6----|
D-----------------|----------------|
A-----------------|----------------|
E-----------------|----------------|
e--------4--------------------|--------------4-----------------4-|---------4
B-----5--------/7--5----4-----|--------5----------------5--------|-----5----
G--6--------6--------------6--|--4--6-----6-------4--6-----6-----|4--6---6--
D-----------------------------|----------------------------------|----------
A-----------------------------|----------------------------------|----------
E-----------------------------|----------------------------------|----------
e---------------4-|------------4---
B---------5-------|--------5-------
G--4--6------6----|--4--6-----6----
D-----------------|----------------
A-----------------|----------------
E-----------------|----------------
keep repeating until the song has finished.
THIS WAS MY FIRST TRY.




Ваше мнение



Капча