-------------------------------------------------------------------------------
SONG NAME: Slow Motion - Band Name: Nickelback
-------------------------------------------------------------------------------
Tabbed by: Tim Brooks
Email: [email protected]
Tuning: Drop D
The whole song is pretty heavy distortion. This song is awesome.
If you haven't bought the Punisher Soundtrack, then go do it right now!

Intro
e|--------------------------------------|
B|--------------------------------------|
G|---------7--------------------------7-|
D|-0-4-3-0-7---0--4-3-0--4-5--0-4-3-0-7-|
A|-0-4-3-0-5---0--4-3-0--4-5--0-4-3-0-5-|
D|-0-4-3-0-----0--4-3-0--4-5--0-4-3-0---|
Pre-Verse 2x
e|------------------------------------------------------------|
B|------------------------------------------------------------|
G|---------7----------------------------7---------------------|
D|-0-4-3-0-7-x-x-0--4-3-0--4-5--0-4-3-0-5-x-x-0--4-5-4--4-5-7-|
A|-0-4-3-0-5-x-x-0--4-3-0--4-5--0-4-3-0-5-x-x-0--4-5-4--4-5-7-|
D|-0-4-3-0---x-x-0--4-3-0--4-5--0-4-3-0---x-x-0--4-5-4--4-5-7-|
Verse
e|-----------------------------------------------|
B|-----------------------------------------------|
G|-----------------------------------------------|
D|-0---0--4-3-0------4-5--0---0--4-3-0--4-5--4-5-|
A|-0---0--4-3-0------4-5--0---0--4-3-0--4-5--4-5-|
D|-0---0--4-3-0------4-5--0---0--4-3-0--4-5--4-5-|
Guitar 1
e|----------------------------------------|
B|----------------------------------------|
G|----------------------------------------|
D|-0---0--4-3-0---------3-3-3-3-3-3-3-3-5-|
A|-0---0--4-3-0---------3-3-3-3-3-3-3-3-5-|
D|-0---0--4-3-0---------3-3-3-3-3-3-3-3-5-|
Guitar 2
e|----------------------------------------|
B|----------------------------------------|
G|----------------------5-5-5-5-5-5-5-5-7-|
D|----------------------5-5-5-5-5-5-5-5-7-|
A|----------------------3-3-3-3-3-3-3-3-5-|
D|----------------------------------------|
Play Pre-Verse 1x
Play Verse
Play Pre-Verse 1x
Riff 1 Guitar 1 4x
e|---------------|
B|---------------|
G|---------------|
D|-5--3-5--3-7-3-|
A|-5--3-5--3-7-3-|
D|-5--3-5--3-7-3-|
Riff 1 Guitar 2 4x
e|---------------|
B|---------------|
G|-7--5-7--5-9-5-|
D|-7--5-7--5-9-5-|
A|-5--3-5--3-7-3-|
D|---------------|
Play Pre-Verse 2x
Play Verse
Play Pre-Verse 1x
Play Riff 1 4x
Riff 2 Guitar 1
e|-----------------|
B|-----------------|
G|-----------------|
D|-0--------3----5-|
A|-0--------3----5-|
D|-0--------3----5-|
Riff 2 Guitar 2
e|-----------------|
B|-----------------|
G|-7--------5----7-|
D|-7--------5----7-|
A|-5--------3----5-|
D|-----------------|
Bridge 2x Strum 2nd Time Through
e|--------------------------------------------------------------|
B|--------------------------------------------------------------|
G|------------------------------------------------------------5-|
D|-8----------------5----------------8---------------3--------5-|
A|-8----------------5----------------8---------------3--------3-|
D|-8----------------5----------------8---------------3----------|
Play Pre-Verse 2x

Play 2x
e|-------------------------------|
B|-------------------------------|
G|-------------------------------|
D|--------3-----0--0-0-0-3-0-3-5-|
A|--3-0-0---0-3----0-0-0-3-0-3-5-|
D|-----------------0-0-0-3-0-3-5-|
Riff 3 3x With Clean Flanger
e|----------------------------|
B|----------------------------|
G|----------------------------|
D|----------------------------|
A|--------------------3-------|
D|--0-0--0--0-0--0--0---5-3-0-|
Guitar 1
e|---------------------------------|
B|---------------------------------|
G|------------------------DiveBomb-|
D|-3-3-3-3-3-3-3-3-5---------------|
A|-3-3-3-3-3-3-3-3-5---------------|
D|-3-3-3-3-3-3-3-3-5---------------|
Guitar 2
e|-------------------------------|
B|-------------------------------|
G|-5-5-5-5-5-5-5-5-7----DiveBomb-|
D|-5-5-5-5-5-5-5-5-7-------------|
A|-3-3-3-3-3-3-3-3-5-------------|
D|-------------------------------|
Heavy Distortion 3x
e|-----------------------------|
B|-----------------------------|
G|-----------------------------|
D|--0-0--0-0--0--------------0-|
A|--0-0--0-0--0--------3-0-3---|
D|--0-0--0-0--0--0-0-0---------|
Guitar 1
e|-------------------|
B|-------------------|
G|-------------------|
D|-3-3-3-3-3-3-3-3-5-|
A|-3-3-3-3-3-3-3-3-5-|
D|-3-3-3-3-3-3-3-3-5-|
Guitar 2
e|-------------------|
B|-------------------|
G|-5-5-5-5-5-5-5-5-7-|
D|-5-5-5-5-5-5-5-5-7-|
A|-3-3-3-3-3-3-3-3-5-|
D|-------------------|
Play Riff 2
Play Bridge 2x
Play Pre-Verse 2x
| / slide up
| slide down
| h hammer-on
| p pull-off
| ~ vibrato
| + harmonic
| x Mute note




Ваше мнение



Капча