-----------------------------------------------------------------------------
Saturday Nights Alright (For Fighting) - Nickelback
Tabbed by:Carlos
Email:[email protected]
Tuning:DADGBe
Sorry no solo but this is the best one on the net
Intro
e|-----------------------------------------------|
B|-----------------------------------------------|
G|-----------------------------------------------|
D|--7-7-7--7-7-7--7-7-7---5-5-5--5-5-5-----------|
A|--7-7-7--7-7-7--7-7-7---5-5-5--5-5-5-----------|
D|--7-7-7--7-7-7--7-7-7---5-5-5--5-5-5-----------|
Verse x2
e|-------------------------------------------------|
B|-------------------------------------------------|
G|-------------------------------------------------|
D|-7-7-7-7-7-7-7-7--7/5-5--5-5-5-5-5-5-5-5---------|
A|-7-7-7-7-7-7-7-7--7/5-5--5-5-5-5-5-5-5-5---------|
D|-7-7-7-7-7-7-7-7--7/5-5--5-5-5-5-5-5-5-5---------|
x x x x x x x x x x x x x x x
e|-----------------------------------------------|
B|-----------------------------------------------|
G|-----------------------------------------------|
D|-0-0-0-0-0-0-0-0--0-7-7--7-7-7-7-7-7-7-7-------|
A|-0-0-0-0-0-0-0-0--0-7-7--7-7-7-7-7-7-7-7-------|
D|-0-0-0-0-0-0-0-0--0-7-7--7-7-7-7-7-7-7-7-------|
x x x x x x x x x x x x x x x x
End of the verse on the second time/Pre chorus
e|-----------------------------------------------|
B|-----------------------------------------------|
G|-----------------------------------------------|
D|-7-7-7-7-7-7-7-7/--2-2-2-2-2-2-2-2------------|
A|-7-7-7-7-7-7-7-7/--2-2-2-2-2-2-2-2------------|
D|-7-7-7-7-7-7-7-7/--2-2-2-2-2-2-2-2-------------
Chorus x2
e|--------------------------------------------------|
B|--------------------------------------------------|
G|--------------------------------------------------|
D|-12-12-12-12-12-12-12-12--10-10-10-10-10-10-10-10-|
A|-12-12-12-12-12-12-12-12--10-10-10-10-10-10-10-10-|
D|-12-12-12-12-12-12-12-12--10-10-10-10-10-10-10-10-|
e|-------------------------------------------------|
B|-------------------------------------------------|
G|-------------------------------------------------|
D|-5-5-5-5-5-5-5-5--12-12-12-12-12-12-12-12--------|
A|-5-5-5-5-5-5-5-5--12-12-12-12-12-12-12-12--------|
D|-5-5-5-5-5-5-5-5--12-12-12-12-12-12-12-12--------|
End of chorus
e|-------------------------------------------------|
B|-------------------------------------------------|
G|-------------------------------------------------|
D|-7----12-10-9---x-x-x-x--------------------------|
A|-7----12-10-9---x-x-x-x--------------------------|
D|-7----12-10-9---x-x-x-x--------------------------|
Song order
Intro
Verse
Pre chorus
chorus
End of chorus
Verse
pre chorus
chorus
end of chorus
Intro
First part of chorus palm muted with breaks
Do this three times
pre chorus (just the second bit)
Chorus
Chorus palm muted
| / slide up
| slide down
| h hammer-on
| p pull-off
| ~ vibrato
| + harmonic
| x Mute note
===============================================================================




Ваше мнение



Капча