Drop D Tuning (D,A,D,G,B,E)
Intro
e|-------------------------------------|
b|-------------------------------------|
g|--------0-----0--------0-----0-----0-|x6
d|------0-----0--------0-----0-----0---|
a|-------------------------------------|
d|-0-1------3-----/75-----5-----5-----|
Verse and Chorus
Chorus
G Bb F C
e|-----------------------------------------------------|
b|-----------------------------------------------------|
g|--------------3---3-3-3-3----------------5---5-5-5-5-|
d|-5---5-5-5-5--3---3-3-3-3--3---3-3-3-3---5---5-5-5-5-|x4
a|-5---5-5-5-5--1---1-1-1-1--3---3-3-3-3---3---3-3-3-3-|
d|-5---5-5-5-5---------------3---3-3-3-3---------------|
Bridge
e|-------------------------------------|
b|-------------------------------------|
g|--------0-----0--------0-----0-----0-|x5
d|------0-----0--------0-----0-----0---|
a|-------------------------------------|
d|-0-1------3-----/75-----5-----5-----|
Bridge 2
e|------------------------------------
b|------------------------------------
g|-5-5-5-5-5-5-5-5--------------------
d|-5-5-5-5-5-5-5-5--1-1-1-1-1-1-1-1---
a|-3-3-3-3-3-3-3-3--1-1-1-1-1-1-1-1---
d|------------------1-1-1-1-1-1-1-1---
e|-------------------------------------|
b|-------------------------------------|
g|-3-3-3-3-3-3-3-3---------------------|
d|-3-3-3-3-3-3-3-3--1-1-1-1-3-3-3-3----|
a|-1-1-1-1-1-1-1-1--1-1-1-1-3-3-3-3----|
d|------------------1-1-1-1-3-3-3-3----|
Solo:
e|----------------------------------------------|
b|----------------------------------------------|
g|---------3---------3p2-2-------2-3-3-3-3-5-5-5|
d|-------3---5----------------------------------|
a|-1-3/5----------------------------------------|
d|----------------------------------------------|
e|--------------------------------------------|
b|----------------------6---8p6--------------6|
g|5-3-3-3-----------5/7---------7-5-7---7-7---|
d|--------5p3h5-------------------------------|
a|--------------------------------------------|
d|--------------------------------------------|
e|--------------------6-----------------------|
b|---6---6---6----6/8-----8p6-----------------|
g|-7---7---7---7--------------753-----------|
d|--------------------------------------------|
a|--------------------------------------------|
d|--------------------------------------------|
play right after solo is done
e|-------------------------------------|
b|-------------------------------------|
g|--------0-----0--------0-----0-----0-|
d|------0-----0--------0-----0-----0---|
a|-------------------------------------|
d|-0-1------3-----/75-----5-----5-----|
Song Ends on this
e|-------
b|-------
g|-------
d|-1-----
a|-1-----
d|-1-----




Ваше мнение



Капча