Вступление
|-------------------------------------------------------------------
|------3---------3---------3-------------------3------3-------------
|------3---------3---------3---------0---------0------0------0------
|----5---5-----5---5-----5---5-----3---3-----2------2------2--------
|--6---------6---------6---------4---------3------3------3----------
|-------------------------------------------------------------------
|----------------------------------------------------0----------------
|------3---------3---------3---------------------3-----3------3-------
|------3---------3---------3---------0---------0---------0----0---0---
|----5---5-----5---5-----5---5-----3---3-----2-----2----------2---2---
|--6---------6---------6---------4---------3----------------------3---
|---------------------------------------------------------------------
Куплет играется также как и вступление
В припеве аккорды проставлены.
слова: I've never been lost never been found...
играются со вступлением
Lyrics:
So i sift and drift through bullshit
That plagues from day to day
Whould you ever really noticed
I'm gone away
I'm over the wall
Over the hill
Over your place
I'm over the safeteys
Over the phonecalls
Over the rage
What a mistake
When you lost the stones to throw
Ones i found to make a fire
And the lonely souls who said so
Get fired
Припев:
B
I'm over the wall
F
Over the hill
D#
Over your place
B
I'm over the safeteys
F
Over the phonecalls
D#
Over the rage
What a mistake
I've never been lost
Never been found
It makes no difference
If i'am around
It's never been words
Never been actions
Never been promises i've never kept
I'm over the wall
Over the hill
Over your place
I'm over the safeteys
Pullin' on your treads i'm always
Over the phonecalls
Pullin' on your treads i'm always
Over the rage
Pullin' on your treads i'm always
What a mistake




Ваше мнение



Капча