Tuning : Dropped-D (DADGBE)
intro-----------------------------------------------------------------------
----------------------------------------------------------------------------
----------------------------------------------------------------------------
--------------------------------------------------5-5-5-5--3-5-5/7/5-3-0----
----10-10-10----9-x-9--------------10---------12--5-5-5-5--3-5-5/7/5-3-0-12/
-----0--0--0----0-x-0---12-10-9-10----10-9-10-----5-5-5-5--3-5-5/7/5-3-0-12/
verse
-------|----------------------------|-------|------|-------
-------|----------------------------|-------|------|-------
-------|----------------------------|-------|------|-------
----0--|----------------------------|-------|--5/--|-------
----0--|------3-----5------3--------|--12/--|--5/--|--12/--
----0--|--3-4---3-4----3-4---3-4-0--|--12/--|--5/--|--12/--
pre-chorus
---------------------------------
---------------------------------
----7--10--11--12---3-4-5---3----
----7--10--11--12---3-4-5---3----
----7--10--11--12---3-4-5---3----
chorus
--------------------------------------------------------------
--------------------------------------------------------------
--------------------------------------------------------------
--------------------------------------------------------------
--------3-----5------3------------3-----5----0-0--0--0-0-0----
----3-4---3-4----3-4---3-4-0--3-4---3-4---0--0-0--0--0-0-0----
bridge
--------------------------------------------------------------------------------
--------------------------------------------------------------------------------
--------------------------------------------------------5-7--------------5-7----
----7--10--11--12--3-5--7--10--11--12--3-5--0--3--4--5--5-7--0--3--4--5--5-7----
----7--10--11--12--3-5--7--10--11--12--3-5--0--3--4--5--3-5--0--3--4--5--3-5----
----7--10--11--12--3-5--7--10--11--12--3-5--0--3--4--5-------0--3--4--5---------
-------------------------------------------
-------------------------------------------
----------------5-7--------------5-7-7/----
----0--3--4--5--5-7--0--3--4--5--5-7-7/----
----0--3--4--5--3-5--0--3--4--5--3-5-5/----
----0--3--4--5-------0--3--4--5------------




Ваше мнение



Капча