Okay,This is my first tab so bare with me....This is also done in the fab Dropped D Tuning D-A-D-G-B-E

e---------------------------------------------------------
B---------------------------------------------------------
G---------------------------------------------------------
D----0--2-----2----2----0--2----2----2--------------------
A---------------------------------------------------------
E----------2-----2----2-------2----2----------------------
(With chorus or Flanger Effect)

e---------------------------------------------------------
B---------------------------------------------------------
G---------------------------------------------------------
D----0-0-2-2-2-2-2--0-0-2-2-2-2-2-------------------------
A----0-0-2-2-2-2-2--0-0-2-2-2-2-2-------------------------
E----0-0-2-2-2-2-2--0-0-2-2-2-2-2-------------------------
(Clean tone Power Chords 2X)

During verse
e---------------------------------------------------------
B---------------------------------------------------------
G---------------------------------------------------------
D--2-2-2-2-2-2-2-0-5-5-5-5-5-5-5-X-0-0-0-0-0-0-0-0--------
A--2-2-2-2-2-2-2-0-5-5-5-5-5-5-5-X-0-0-0-0-0-0-0-0--------
E--2-2-2-2-2-2-2-0-5-5-5-5-5-5-5-X-0-0-0-0-0-0-0-0--------
(Muted Clean Tone)

e---------------------------------------------------------
B---------------------------------------------------------
G---------------------------------------------------------
D---0-2-2-2-0-2-2-2-2-0-----------------------------------
A---0-2-2-2-0-2-2-2-2-0-----------------------------------
E---0-2-2-2-0-2-2-2-2-0-----------------------------------
(Verse Contiued)(Still Muted)

The Chorus is basicly the same thing only with distortion and open power chords....

e---------------------------------------------------------
B---------------------------------------------------------
G---------------------------------------------------------
D--0-0-2-2-2-2-2------------------------------------------
A--0-0-2-2-2-2-2------------------------------------------
E--0-0-2-2-2-2-2------------------------------------------
4X

e---------------------------------------------------------
B---------------------------------------------------------
G---------------------------------------------------------
D-0-0-2-2-2-2-2-0-0-5-5-5-5-5-0-0-0-0-0-0-0-0-2-0-2-0-2-0-
A-0-0-2-2-2-2-2-0-0-5-5-5-5-5-0-0-0-0-0-0-0-0-2-0-2-0-2-0-
E-0-0-2-2-2-2-2-0-0-5-5-5-5-5-0-0-0-0-0-0-0-0-2-0-2-0-2-0-
(Its this until the song ends)
Its really a simple song to play

Any questions or comments E-mail me at [email protected]




Ваше мнение



Капча