name: Dustin Jernberg
artist: Nickelback
SongTitle: Leader of men
Tabs: #----------------------------------PLEASE
NOTE---------------------------------#
#This file is the author's own work and represents their interpretation
of the #
#song. You may only use this file for private study, scholarship, or
research. #
#------------------------------------------------------------------------------#

Dropped D Tuning
Intro 1(x18):
E-------
B-------
G-------
D-0h2---
A-------
D-----2-
After 7 times: another guitar comes in strumming:
Intro 2
E------------------
B------------------
G------------------
D--0-0h2--2-2--2-2-
A--0-0h2--2-2--2-2-
D--0-0h2--2-2--2-2-
Rift1 (x3 for each verse/chorus)
Start Acoustic:
E---------------------------------------------------------------
B------------------------------------3-3-3-3-3-3-3--------------
G------------------------------------2-2-2-2-2-2-2--------------
D--0h2-2-2-2-2-2-2-2-5-5-5-5-5-5-5-5-0-0-0-0-0-0-0-2-2-2-2-2-2-2
A--0h2-2-2-2-2-2-2-2-5-5-5-5-5-5-5-5-0-0-0-0-0-0-0-2-2-2-2-2-2-2
D--0h2-2-2-2-2-2-2-2-5-5-5-5-5-5-5-5-0-0-0-0-0-0-0-2-2-2-2-2-2-2
|
E---------------------------------------------------------------
D---------------------------------------------------------------
G---------------------------------------------------------------
D-----------------2---------------5------------0-------------2--
A------------------2---------------5------------0-------------2-
D-------------------2---------------5------------0-------------2
Tell your friends not to think out loud, until they swallow
Whisper things into my brain, your voice sounds so hollow
I am not a leader of men, since I prefer to follow
Do you think I could have a drink, since it's so hard to swallow
E---------------------------------------------------------------
B---------------------------------------------------------------
G---------------------------------------------------------------
D-5-------7-----------------2--------------2-2-2-2-2-2-2-2-2-2-2
A-5-------7-----------------2--------------2-2-2-2-2-2-2-2-2-2-2
D-5-------7-----------------2--------------2-2-2-2-2-2-2-2-2-2-2
|
E---------------------------------------------------------------
B---------------------------------------------------------------
G---------------------------------------------------------------
D-----5---7--------------------2--0---0h2-0h2-----------------
A---------------------------------------------------------------
D---------------------------------------------------------------
Yeah-a-ah, so hard to swallow
Turn your television off and I will sing a song
And if you suddenly have the urge, you can sing along
I touch your hand, touch your face, I think the food is rotten Give me
lessons on how to breathe, ‘cause I think I've forgotten Yeah, think
I've forgotten
[Turn on distortion (Same chords, different strum pattern)
(2nd guitar ends)]
Bridge: Identical to Intro 2 (faster)
Ooh, one day out to a cliff that overlooks the water
I jumped in to save a girl, it was somebody's daughter
Now the ring is on my hand, was given to me by her
And to this day we all sit around and dream of ways to get higher
Yeah, to get much higher
Repeat First Verse
Another Nickelback bit:
Intro to ‘Where?’
E-------------------------------------------------
B-------------------------------------------------
G----14-14-b14-11-11-b11--------------------------
D------------------------12-12-12-9b--------------
A-------------------------------------12-12-12----
E-------------------------------------------------
Not sure about the chords (power chords centred around 6th fret).




Ваше мнение



Капча