Okay..If you are confused by this tab I also posted The "Leader Of Men" First guitar part if that helps....Its also late and my Red Bull Wings are falling off so I apolagize.....
Okay...This is another great song done in the Fab Dropped D Tuning D-A-D-G-B-E

It starts out just like the first guitar part

e---------------------------------------------------------
B---------------------------------------------------------
G---------------------------------------------------------
D---0-0-2-2-2-2-2-----------------------------------------
A---0-0-2-2-2-2-2-----------------------------------------
E---0-0-2-2-2-2-2-----------------------------------------
Clean Tone Power Chords 4X

The first guitar is doing a muted clean power chord thing while the second guitar is doing this.......
e---------------------------------------------------------
B---------------------------------------------------------
G----0----------------------------------------------------
D-------0-------------------------------------------------
A----------0----------------------------------------------
E---------------------------------------------------------
(This is done right after each the 1st and 2cd Muted Power chords in the verse pattern)

e---------------------------------------------------------
B---------------------------------------------------------
G---------------------------------------------------------
D-----0---------------------------------------------------
A--------0------------------------------------------------
E-----------0---------------------------------------------
(This is done right after each 3rd and 4th Muted Power Chords In the Verse Pattern)

The chorus is simple too.....It is the same as the First Guitar part

e---------------------------------------------------------
B---------------------------------------------------------
G---------------------------------------------------------
D---0-0-2-2-2-2-2-0---------------------------------------
A---0-0-2-2-2-2-2-0---------------------------------------
E---0-0-2-2-2-2-2-0---------------------------------------
This is done with distortion 4X

e---------------------------------------------------------
B---------------------------------------------------------
G---------------------------------------------------------
D-0-0-2-2-2-2-2-0-0-5-5-5-5-5-0-0-0-0-0-0-0-0-2-2-2-2-2-0-
A-0-0-2-2-2-2-2-0-0-5-5-5-5-5-0-0-0-0-0-0-0-0-2-2-2-2-2-0-
E-0-0-2-2-2-2-2-0-0-5-5-5-5-5-0-0-0-0-0-0-0-0-2-2-2-2-2-0-
Its basicly that until the end of the song...Its an easy song to play even though it is a great song....

Any questions or comments E-mail me at [email protected]
By the way,my names Chris
Thanx alot




Ваше мнение



Капча