Nickelback / Just For
Song: Just For
Band: Nickelback
Album: Silver Side Up
Tuning: Drop D
Symbols used:
X = Muted strings
/ = Slide
v = vibrato
h = hammer-on
8b(10) = Bend note (8th fret) to pitch of tenth
Intro (Main Riff):
e|----------------------------------------------------------|
B|----------------------------------------------------------|
G|---------------------------------------------------------*|
D|---3--3--3--X--X--5-6-6-5-6-6--1--1---X-X-X-X-X-X-X-X-X--*|
A|---3--3--3--X--X--5-6-6-5-6-6--1--1---X-X-X-X-X-X-X-X-X---|
D|---3--3--3--X--X--5-6-6-5-6-6--1--1---X-X-X-X-X-X-X-X-X---|
End of intro: Hold each of these chords
e|------------------------------------------|
B|------------------------------------------|
G|------------------------------------------|
D|---3--------1--------3--------1-----------|
A|---3--------1--------3--------1-----------|
D|---3--------1--------3--------1-----------|
Verse: Some of these notes are hard to hear, and there is some improvisation, so
screw around with these notes. I might be wrong at some places here...
e|-------------------------|----------------------------------|
B|-------------------------|----------------------------------|
G|------------6--5---------|----------6--5--------------------|
D|----/6--5-----------6v---|---6--5---------6v---8-----8------|
A|-------------------------|------------------------6-----6---|
D|-------------------------|----------------------------------|
"I want To take his eyes out Just for
e|-------------------------|--------------------------------------|
B|-------------------------|--------------------------------------|
G|------------6--5---------|--------------------------------------|
D|----/6--5-----------6v---|----/6--5v----5h6p5-------8-----8-----|
A|-------------------------|----------------------8------6-----6--|
D|-------------------------|--------------------------------------|
looking at you Yes I do..."
e|-------------------------|---------------------------|
B|-------------------------|----------------8--8b(10)--|
G|------------6--5---------|----------6--5-------------|
D|----/6--5-----------6v---|---6--5--------------------|
A|-------------------------|---------------------------|
D|-------------------------|---------------------------|
"And I want To take his hands off Just for touching you
e|-------------------------|--------------------------|
B|-------------------------|--------------------------|
G|------------6--5---------|--------------------------|
D|----/6--5-----------6v---|-----/6v---(hold)---------|
A|-------------------------|--------------------------|
D|-------------------------|--------------------------|
Yes I do..."
Start to swell distortion on the last note, and hold it for a couple seconds
Chorus:
e|--------------------------------------------------------------|
B|--------------------------------------------------------------|
G|--------------------------------------------------------------|
D|---X-X---X--X---3---------6--6--------1--1---X-X-X-X-X-X-X-X--|
A|---X-X---X--X---3---------6--6--------1--1---X-X-X-X-X-X-X-X--|
D|---X-X---X--X---3---------6--6--------1--1---X-X-X-X-X-X-X-X--|
"And I want...... To rip his
e|----------------------------------------------------------|
B|----------------------------------------------------------|
G|----------------------------------------------------------|
D|---3--3--3--X--X--5-6-6-5-6-6--1--1---X-X-X-X-X-X-X-X-X---|
A|---3--3--3--X--X--5-6-6-5-6-6--1--1---X-X-X-X-X-X-X-X-X---|
D|---3--3--3--X--X--5-6-6-5-6-6--1--1---X-X-X-X-X-X-X-X-X---|
Heart out........ Just for hurting you...
e|-----------------------------------------------|
B|-----------------------------------------------|
G|-----------------------------------------------|
D|-3---------6--6--------1--1---X-X-X-X-X-X-X-X--|
A|-3---------6--6--------1--1---X-X-X-X-X-X-X-X--|
D|-3---------6--6--------1--1---X-X-X-X-X-X-X-X--|
And I want To break his
e|-----------------------------------------------|
B|-----------------------------------------------|
G|-----------------------------------------------|
D|-3---------6--6--------1--1---X-X-X-X-X-X-X-X--|
A|-3---------6--6--------1--1---X-X-X-X-X-X-X-X--|
D|-3---------6--6--------1--1---X-X-X-X-X-X-X-X--|
Mind down Yes I do"
After the chorus, go back to the beginning. Play the intro, verse and chorus
again the same way. After the 2nd chorus play the following:
play 4 times
e|----------------------------------------------------------|
B|----------------------------------------------------------|
G|---------------------------------------------------------*|
D|---3--3--3--X--X--5-6-6-5-6-6--1--1---X-X-X-X-X-X-X-X-X--*|
A|---3--3--3--X--X--5-6-6-5-6-6--1--1---X-X-X-X-X-X-X-X-X---|
D|---3--3--3--X--X--5-6-6-5-6-6--1--1---X-X-X-X-X-X-X-X-X---|
"Yes I do"
e|------------------------------------------|
B|------------------------------------------|
G|------------------------------------------|
D|---3--------1--------3--------1-----------|
A|---3--------1--------3--------1-----------|
D|---3--------1--------3--------1-----------|
Interlude:
play 2 times
e|-----------------------------------|-------------------------|
B|-----------------------------------|-------------------------|
G|----------6--5---------------------|------------6--5---------|
D|---6--5---------6v----8-----8------|----/6--5-----------6----|
A|-------------------------6-----6---|-------------------------|
D|-----------------------------------|-------------------------|
On the second time, play muted strings and increase the distortion during
the last measure.
And here's where things start to get really fast...
Heavy Interlude:
play 2 times
e|-----------------------------------------------------|
B|-----------------------------------------------------|
G|-----------------------------------------------------|
D|---3--3--3--X--X--5-6-6-5-6-6--1--1--X-X---8-8-9-9---|
A|---3--3--3--X--X--5-6-6-5-6-6--1--1--X-X---8-8-9-9---|
D|---3--3--3--X--X--5-6-6-5-6-6--1--1--X-X---8-8-9-9---|
Then (really ***ing fast here):
play 4 times
e|--------------------------|
B|--------------------------|
G|--------------------------|
D|--3---1---6---1---8-8-8---|
A|--3---1---6---1---8-8-8---|
D|--3---1---6---1---8-8-8---|




Ваше мнение



Капча