Drop D Tuning
Note: This whole song is on distortion
Tabbed by: MadMax1786 ([email protected])
This song rules, I couldn't find any decent version so I decided to
tab on my own...
This is my 2nd tab but It's damn good!
Intro
|----------------------------------------------------|
|----------------------------------------------------|
|----------------------------------------------------|
|-xxxxxx-2/3333-xxxx-5/6-5/6--0h1111-xxxxxxxxxx------| (Repeat twice)
|-xxxxxx-2/3333-xxxx-5/6-5/6--0h1111-xxxxxxxxxx------|
|-xxxxxx-2/3333-xxxx-5/6-5/6--0h1111-xxxxxxxxxx------|

|----------------------------------------------------|
|----------------------------------------------------|
|----------------------------------------------------|
|-3v-----------1v-----------3^-----------1v----------| (Let ring)
|-3v-----------1v-----------3^-----------1v----------|
|-3v-----------1v-----------3^-----------1v----------|
Main Verse
|---------------------------|
|---------------------------|
|-------------6--5v---------|
|--5h6--6--5----------------|
|-------------------5-6v---| (Let ring for a while then slide)
|---------------------------|
Verse End 1
|------------------------------------|
|------------------------------------|
|-------------6--5-------------------|
|--5h6--6--5v-------------8---8------|
|------------------6--6-6---6---6----|
|------------------------------------|
PM. |-------|
Verse End 2
|----------------------------------------------|
|----------------------------------------------|
|----------------------------------------------|
|-----5-5-5h6---5v---5-5-5h6p5--------8---8----|
|------------------------------6--6-6---6---6--|
|----------------------------------------------|
PM. |---| PM. |---| PM. |-----------|

Verse End 3
|-----------------------------------|
|-------------------8-8-8-9---------|
|-------------6--5-----------5v-----|
|--5h6--6--5------------------------|
|-----------------------------------|
|-----------------------------------|
Verse End 4
|-------------------------|
|-------------------------|
|-------------------------|
|-------------------------|
|-------6v---------------| (Let ring then slide)
|-------------------------|
Play verse then do each different end so it should look like this:
Verse
Verse End 1
Verse
Verse End 2
Verse
Verse End 3
Verse
Verse End 4
After you've done all the verse parts play this then start chorus.
|------------------------------------|
|------------------------------------|
|------------------------------------|
|--0--0-0-0-----0-0--0-0---xxxxx-----|
|--0--0-0-0-----0-0--0-0---xxxxx-----|
|--0--0-0-0-----0-0--0-0---xxxxx-----|
PM. |-----| PM. |---|

Chorus
|--------------------------------------------------------------|
|--------------------------------------------------------------|
|--------------------------------------------------------------|
|--3--6--1----1-xxxxxxxx-2/3333-xxxx-5/6-5/6-0h1111-xxxxxxxxxx-|
|--3--6--1--1-1-xxxxxxxx-2/3333-xxxx-5/6-5/6-0h1111-xxxxxxxxxx-|
|--3--6--1--1-1-xxxxxxxx-2/3333-xxxx-5/6-5/6-0h1111-xxxxxxxxxx-|
|--------------------------------------------------------------|
|--------------------------------------------------------------|
|--------------------------------------------------------------|
|--3-6-1------1-xxxxxxxx-3-6-1------1-xxxxxxxx-----------------|
|--3-6-1----1-1-xxxxxxxx-3-6-1----1-1-xxxxxxxx-----------------|
|--3-6-1----1-1-xxxxxxxx-3-6-1----1-1-xxxxxxxx-----------------|
Different Verse Before Interlude
|---------------------------------|
|---------------------------------|
|-------------6-5v----------------|
|--5h6--6-5v--------------8-------|
|-------------------6-6-6---6-----|
|---------------------------------|
PM. |-----|
|---------------------------------|
|---------------------------------|
|----------------6-5v------------| (Let ring then slide)
|-----5h6--6-5v-------------------|
|--6------------------------------|
|---------------------------------|
|---------------------------------|
|---------------------------------|
|-------------6-5v----------------|
|--5h6--6-5v--------------8---8---|
|-------------------6-6-6---6---6-|
|---------------------------------|
PM. |-----|
|---------------------------------|
|---------------------------------|
|--------------6-5v--------------| (Let ring then slide)
|--5h6--6-5v----------------------|
|---------------------------------|
|---------------------------------|
Interlude
|----------------------------------------|
|----------------------------------------|
|----------------------------------------|
|--2/3333-xxxx-5/6-5/6--0h111/8888/999---| (Repeat twice)
|--2/3333-xxxx-5/6-5/6--0h111/8888/999---|
|--2/3333-xxxx-5/6-5/6--0h111/8888/999---|
|----------------------------------------|
|----------------------------------------|
|----------------------------------------|
|--3--1--6--1--8*------------------------| (Repeat 4 times)
|--3--1--6--1--8*------------------------|
|--3--1--6--1--8*------------------------|
* - Strike Harder with pick giving it an accented tone.
Outro - End the song with this
|------|
|------|
|------|
|--1v--| (Let ring)
|--1v--|
|--1v--|
Btw, I tabbed this using an acoustic guitar cuz I don't have my eletric yet :P
So I might be wrong on some parts...
Please email me at [email protected] if you have any questions, comments,
problems, corrections and etc..
Thanks, I hope you enjoy this tab as much as I did.




Ваше мнение



Капча