This is the song done by Chad Kroeger and josey Scott for Spiderman.
The song has 3 guitars but im only tabbing what chad plays.Its easy
and fun to play!
Verse riff
-------------------------------------------
-------------------------------------------
-------------------------------------------
-6--6--6--6--2--2--2--2--------------------x2
-4--4--4--4--2--2--2--2--------------------
-4--4--4--4--0--0--0--0--------------------
Pre-Chorus
-------------------------
-------------------------
-------------------------
-5-------7-------2-------x1 Im not sure how many times you play
-5-------7-------2------- those chords.
-3-------5-------0-------
Chorus
--------------------------------------------------
--------------------------------------------------
--------------------------------------------------
-5-5-5-5-5--7-7-7-7-7--9-9-9-9-9-9-9-9-9----------x2
-5-5-5-5-5--7-7-7-7-7--9-9-9-9-9-9-9-9-9----------
-3-3-3-3-3--5-5-5-5-5--7-7-7-7-7-7-7-7-7----------
Then play all of that again and then the solo which
is played with a wah-wah pedal!
---------------------------------------------------------------------------------
---------------------------------------------------------------------------------
-7-6-7-6-7-6---7-6-7-6-7-6--------11-9-11-9-11-9----11-9-11-9-11-9---------------
-------------9-------------7-9-11----------------12----------------11-9-9-12-12--
---------------------------------------------------------------------------------
---------------------------------------------------------------------------------
Then there is the acoustic bit which i havent tabbed coz josey plays it!
Then keep reapeating the chourus
and end on this chord!
---------------------
---------------------
--8------------------- Hope u think its good c ya!
--9-------------------
--9-------------------
--7-------------------




Ваше мнение



Капча