Tuning: Drop C - down one whole step w/ Drop D (C,G,C,F,A,D)
|------|-----------------------------------------|
|------|-----------------------------------------|
|------|-----------------------------------------|
|------|-----------------------------------------|
|------|-2-2-0-2---5-5-2-5---7-7-5-7---8-7-5-7---|
|--15/-|-2-2-0-2—--5-5-2-5---7-7-5-7---8-7-5-7---|
|-------------------------------------------|
|-------------------------------------------|
|-------------------------------------------|
|-------------------------------------------|
|---2-2-0-2---5-5-2-5---7-7-7-7---0--0-0-0--|
|---2-2-0-2—--5-5-2-5---7-7-7-7---0—-0-0-0--|
Verse
|-------------------------------------|
|---------------------------3---------|
|---------------------------2---------|
|---------------------------0---5-5h7-|
|--2-2-2---2—-2-2---2-2-2---0---5-5h7-|
|--2-2-2---2—-2-2---2-2-2---0---5-5h7-|
Chorus
|-----------------------------------------|
|-----------------------------------------|
|-----------------------------------------|
|-----------------------------------------|
|--2-2-0-2---5-5-2-5---7-7-5-7---8-7-5-7--|
|--2-2-0-2—--5-5-2-5---7-7-5-7---8-7-5-7--|
|------------------------------------------|
|------------------------------------------|
|------------------------------------------|
|------------------------------------------|
|--2-2-0-2---5-5-2-5---7-7-7-7---0--0-0-0--|
|--2-2-0-2—--5-5-2-5---7-7-7-7---0—-0-0-0--|
Bridge
|-----------------------------------------------------0---|
|-----------------------------------------------------2---|
|----------7-7-7-----------7-7-7-----------7-7-7------3---|
|----------x-x-x-----------x-x-x-----------x-x-x------0---|
|--2—-2-2—-5-5-5-—-2—-2-2—-5-5-5-—-2—-2-2—-5-5-5-—-5—-0---|
|--2—-2-2----------2—-2-2----------2—-2-2----------5—-0---|
|------|
|------|
|------|
|--12--|
|------|
|------|
Outro
|---------------------------0-----------|
|--5-5-5---5--5-5---5-5-5---2----5-5-5--|
|--4-4-4---4—-4-4---4-4-4---3----4-4-4--|
|--2-2-2---2—-2-2---2-2-2---0—5--2-2-2--|
|--2-2-2---2—-2-2---2-2-2---0—5--2-2-2--|
|--2-2-2---2—-2-2---2-2-2---0-5--2-2-2--|




Ваше мнение



Капча