Tuning: Drop D (D,A,D,G,B,E)

Intro/main riff/verse
|-------------------------------------------------------------|
|-------------------------------------------------------------|
|----------10-10-10—-9-------10-----------------10-10-10—-9---|
|-----------x—-x—-x—-x--------x------------------x—-x-—x—-x---|
|-----------8—-8—-8—-7--------8------------------8—-8—-8-—7---|
|--0-0-0-0---------------0-0-----0-0-0---0-0-0-0--------------|
x x x x x x x x x x x x x
|------------------------------|
|------------------------------|
|------------------------------|
|-------------10------------7--|
|-----------8-------------5----|
|--8-8-8—-8--------5-5-5—------|
x x x x x x x x x
Pre-chorus
|---------------------------|--------------------------|
|---------------------------|--------------------------|
|---------------------------|--------------------------|
|-(8)------10------10---10—-|--(5)------7------7---7---|
|-(8)----8----8-------8-----|--(5)----5---5------5-----|
|-(8)--8---------8----------|--(5)—5---------5---------|
|---------------------------|---------------------------|
|---------------------------|---------------------------|
|---------------------------|---------------------------|
|-(8)------10------10---10--|--(10)-------12--------10--|
|-(8)----8----8-------8-----|--(10)-----10---10-----10--|
|-(8)—8----------8----------|--(10)—-10----------10-10--|
Chorus
|----------------------------------------------------------------|
|----------------------------------------------------------------|
|-----------14/--------------------------------------------------|
|--0-0—-0----x/--8-8---8-8-8---0-0—-0—-7/---10-10---10-10-10-10--|
|--0-0—-0---12/--8-8---8-8-8---0-0—-0—-5/---10-10---10-10-10-10--|
|--0-0—-0--------8-8---8-8-8---0-0—-0—-5/---10-10---10-10-10-10--|
|---------------------------|---------------------------|
|---------------------------|---------------------------|
|---------------------------|---------------------------|
|-(8)------10------10---10--|--(10)-------12--------10--|
|-(8)----8----8-------8-----|--(10)-----10---10-----10--|
|-(8)—8----------8----------|--(10)—-10----------10-10--|
Bridge
|----------------------------------------|
|----------------------------------------|
|----------------------------------------|
|---------10-8-7------------7-5-3—0h3-5--|
|----8-----------8-----5-----------------|
|--8---8-------------5---5---------------|
|------------------------------------------|
|--6/13—--10---8---6---6/13---10---8---6---|
|------------------------------------------|
|------------------------------------------|
|------------------------------------------|
|------------------------------------------|
|----------------------------------|--
|--10-----10----10----10----10-----|--
|-----10----10----10----10----10---|--
|---8----8-----8----8-----8-----8--|--
|----------------------------------|--
|----------------------------------|--
---------------------------------|----------------------------------|
--8------8-----8-----8-----8-----|--10-----10----10----10----10-----|
----10----10----10----10----10---|-----10----10----10----10----10---|
--7----7----7-----7-----7-----7--|---8----8-----8----8-----8-----8--|
---------------------------------|----------------------------------|
---------------------------------|----------------------------------|
----------------------------------------|
--13------13-----13-----13-----13-------|
-----12-----12-----12-----12-----12-----|
--10---10-----10-----10-----10-----10---|
----------------------------------------|
----------------------------------------|
Palm Muted chords
|----------------------------------------------|
|----------------------------------------------|
|----------------------------------------------|
|--8-8-8-8-8-8-8-8---10-10-10-10-10-10-10-10---|
|--8-8-8-8-8-8-8-8---10-10-10-10-10-10-10-10---|
|--8-8-8-8-8-8-8-8---10-10-10-10-10-10-10-10---|

Solo
|----------------------------------------------|
|----------------------------------------------|
|----------------------------------------------|
|-----7---3---5------2-2h3—---7-3-5----2-2h3---|
|-10-------------3-3-------10-------3-3--------|
|----------------------------------------------|




Ваше мнение



Капча