Band: Nickelback
Song: Because of you
Tuning: drop C
Album: The Long Road
Intro (chad plays this once then ryan kicks in)
D|-----------------------------------------------------------
A|-----------------------------------------------------------
F|-----------------------------------------------------------
C|-2--0-0-0-2---2--0-0-0-2---0-0-0-0-0-2---------------------
G|-2--0-0-0-2---2--0-0-0-2---0-0-0-0-0-2-------5---------3h5-
C|-2--0-0-0-2---2--0-0-0-2---0-0-0-0-0-2--0-2-0-0-3-0-2-0----
Intro 2 (main riff) (when ryan kicks in)
D|------------------------------------------------------
A|------------------------------------------------------
F|------------------------------------------------------
C|-0-0-0-2--2--0-0-0-2--0-0-0-0-0-2--------------------- } 2X
G|-0-0-0-2--2--0-0-0-2--0-0-0-0-0-2-------5---------3h5-
C|-0-0-0-2--2--0-0-0-2--0-0-0-0-0-2--0-2-0-0-3-0-2-0----
D|--------------------------------------------
A|--------------------------------------------
F|--------------------------------------------
C|-0-0-0-2--2--0-0-0-2--0-0-0-0-0-2--------5b-
G|-0-0-0-2--2--0-0-0-2--0-0-0-0-0-2--------5b-
C|-0-0-0-2--2--0-0-0-2--0-0-0-0-0-2--0-0-2-5b-
then back to main riff and play 2x again.
chorus
'hands on the mirror, cant get much clearer, cant make this all go away'
D|---------------------------------------------------
A|---------------------------------------------------
F|---------------------------------------------------
C|-0-0-0-0-0--0-0-0-0-0-0--0-0-0-0-0-0-0-0-0-0-0-3-5-
G|-0-0-0-0-0--0-0-0-0-0-0--0-0-0-0-0-0-0-0-0-0-0-3-5-
C|-0-0-0-0-0--0-0-0-0-0-0--0-0-0-0-0-0-0-0-0-0-0-3-5-




Ваше мнение



Капча