Intro
|--------------------------------------|
|--------------------------------------|
|-----2-----2----2-------2-----2----2--|
|--------------------------------------|
|-0-0---0-0---0------------------------|
|--------------------3-3---3-3---3-—---|

|--------------------------------------|----------|
|--------------------------------------|--3-3-----|
|----2-----2----2-------2-----2----2---|--2-2-----|
|--------------------------------------|--0-0—-5--|
|--------------------------------------|--0-0—-5--|
|-0-0---0-0---0------5-5---5-5---5-----|--0-0—-5--|
chorus
|------------------------------------------|----------------|---------|
|-----------------------------3-3-3--------|----------------|---------|
|--2-2-2----------------------2-2-2—-------|----------------|---------|
|--2-2-2—-5------3-3-3—-5-----0-0-0—-5--—--|-5-5-5—-5-5-----|-5-5-5-2-|
|--0-0-0—-3(3x)--3-3-3—-3(3x)--------3(3x)—|-5-5-5—-3-3(3x)-|-3-3-2-0-|
|----------------3-3-3---------------------|-5-5-5----------|---------|
|------------------|
|------------------|
|------------------|
|--2---3---0---5---|
|--0---3---0---5---|
|------3---0---5---|
|------------------------------------------|
|----------------------3-3-3-3-------------|
|----------------------2-2-2-2-------------|
|--2-2-2-2---3-3-3-3—--0-0-0-0---5-5-5-5---|
|--0-0-0-0---3-3-3-3-------------5-5-5-5---|
|------------3-3-3-3-------------5-5-5-5---|
Outro
|-----|
|--3--|
|--2--|
|--0--|
|--0--|
|--0--|




Ваше мнение



Капча