-##
From: Harlan L Thompson
PINK MOON- Nick Drake
TUNING: D A D G D F# (capo 2nd fret) or C G C F C E (capo 4th fret)
INTRODUCTION:
F#||-0-0-0-0-0-0-0-0-0---||
D ||-0-0-0-0-0-0-0-0-0---||
G ||-2-2-2-0-0-0-0-0/2--.||
D ||-4-4-4-2-0-2-0-2/4--.||
A ||-0-0-0-0-0-0-0-0-0---||
D ||-0-0-0-0-0-0-0-0-0---||
VERSE:
||-7-7-7-7-7---5-5-5-5-5---||
||-7-9-7-9-7---5-7-5-7-5---||
||-7-7-7-7-7---5-5-5-5-5--.||
||-7-7-7-7-7---5-5-5-5-5--.||
||-7-7-7-7-7---5-5-5-5-5---||
||-7-7-7-7-7---5-5-5-5-5---||
CHORUS:
Introduction followed by:
||-0-----0-----0-0-0-0-0-0------||
||-0-----0-----0-0-0-0-0-0------||
||-0-----2-----0-0-0-0-0-2-----.||
||-0-----4-----2-0-0-0-0/4-----.||
||-2-----0-----0-0-2-0-2-0------||
||-2-----0-----0-0-0-0-0-0------||
SOLO:
||-0-------------|-1-0--------------||
||---2-0---------|-----2-0-----0----||
||-------6-4-0---|---------2h4---2-.||
||-------------2-|---------------4-.||
||-------------2-|------------------||
||---------------|------------------||
I saw it written and I saw it say
Pink moon is on its way
And none of you stand so tall
Pink moon gotta get ye all
It a pink moon
Yeah a pink moon
Pink pink pink pink pink pink moon
Pink pink pink pink pink moon
(SOLO)
I saw it written and I saw it say
Pink moon is on its way
None of you stand so tall
Pink moon gotta get ye all
And its a pink moon
Yeah there's a pink moon
NOTE: In addition to fixing the lyrics a bit, I changed the piano "solo"
a bit- I moved it an octave up to make it come out more clearly.
(from Pink Moon, 1972)




Ваше мнение



Капча