#----------------------------------PLEASE NOTE---------------------------------#
#This file is the author's own work and represents their interpretation of the #
#song. You may only use this file for private study, scholarship, or research. #
#------------------------------------------------------------------------------##
From: [email protected] (Stefan Keil)
For corrections or other questions (e.g. trading live CD-R?s of NMA) please mail
This is the intro and the chorus of ?Wonderful way to go? from New Model Army from their ?Strange Brotherhood?-Album.
Please use heavy distortion and in addition to that (only for the intro; but anyway you can decide how to
your effects;-) a slight Chorus or Delay Effect.
If you don?t remember the song very well, listen to it one more time and then you should get the used
soon.
-----------------------------------------------------------
Wonderful way to go / New Model Army (Strange Brotherhood)
-----------------------------------------------------------
Intro (as it is played in the Studio version and on the stage, in some live recordings it may be played
so if you like, just repeat it again)
e-----------------------------------|
b-----------------------------------|
g--14--13---------------------------|
d----------15--11------13-----------|
a------------------14------14--12---|
e-----------------------------------|
Note: Let ring each note as long as possible
This is the guitar line for the refrain starting by:
e---------------------------------------------------------------------------------------------------|
b--7---7-7---7--8---8-8---8--11----11-11----11-12----12-12----12-14----14-14----14--14----14-14-----|
g----6-----6-----7------7-------11-------11-------12-------12-------11-------11--------11-------11--|
d---------------------------------------------------------------------------------------------------|
a---------------------------------------------------------------------------------------------------|
e---------------------------------------------------------------------------------------------------|
Colors brighter than if ever seen, more weired than i?ve ever been and faces turn to stone and through
gates again, what a wonderful way to go, what a wonderful way to gooo??
So folks, that?s it, great song. What a wonderful way to go, what a wonderful song to play. Greets to all
fans.
Also greets to all the people from my old high school, if anybody of them should ever read this. Abi 99
rockz :-)




Ваше мнение



Капча