Date: Fri, 12 Dec 1997 12:01:10 +0100
From: [email protected]
To: [email protected]
Subject: new_model_army.tab

date: 12/12/97
transcriber: stephan jaensch
e-mail: [email protected]
artist: new model army
song: sleepwalking
album: the ballads ep
author: rob heaton

h: hammer-on
p: pull-off

use a whole lotta finger-vibrato so this piece gets the right
kinda feelin', it also sounds nice a little distorted.

tune down 6th string one whole step to D

START PART I (three times)
E-----------|---------------------------------------------------
B-----------|---------------------------------------------------
G-0h2---0h2-|-5p3p2---2-----------2---2---2-5p3p2---2-----------
D-----------|-0-----0---0-2-3-5-----0---0---0-----0---0-2-3-5-3-
A-----------|-------------3-----3-----------------------3-------
D-----------|---------------------------------------------------

E-------------------------------------------------------|
B-------------------------------------------------------|
G---0---0-5p3p2---2-----------2---2---2-----------------|
D-2---2---0-----0---0-2-3-5---0-0---0---0-2-2-2h3p2-0---|
A-3-------------------3-----3-------------3-------------|
D-----------------------------------------------------0-|

PART II
E---------------------------------------------------------------
B-------------------------------1-----------------------1---3p1-
G-2---2---2---2---2-2-2-2-0-------2-------------------2---2-----
D---0---0---0---0-3---------3-2-----2---3-3-3-3-2-0-2-----------
A-----------------3-----------0-------0-1-----------------------
D---------------------------------------------------------------

E-------------------------------------------|
B---------------------------------3---3---3-|
G-2-----2-2-2-0-----------------3---3---3-2-|
D---2---3-------3-2-2-2-0---3-3-----------0-|
A-------3---------0-------0-1-------------0-|
D-----------------------------------------0-|

do the whole thing twice

so this is how i could work it out. if anyone has any corrections,
additions or whatever please add it to my tab or send it to me.




Ваше мнение



Капча