********************************************
*Nevermore - The River Dragon Has Come *
*From the album: Dead Heart In A Dead World*
********************************************
Tab By: Andrea Tappini
(There's only the initial harp.)
Tune Guitar 1/2 Step Down!
Harp. Intro
D|---------------------0---------|------0------0------------0-----0--------|
A|------------------0------------|----0------0------0-----0-----0----------|
F|------------16----------16----|-16----14----12----14---12----11----|
C|--------------------------------|-------------------------------------------|
G|--------------------------------|-------------------------------------------|
D|---0---------------------------|-------------------------------------------|
D|------0----0----0----0-----|---0----0------------0-----0------------------0--|
A|-----8----8----8----8------|--8----8------------8-----8-------------------0--|
F|-7h9----9----9----9-------|-7----7----7-------------------7--7slide16-16-|
C|-----------------------------|---------------9h10----10------------------------|
G|-----------------------------|----------------------------------------------------|
D|-----------------------------|----------------------------------------------------|
Repeat Intro a Last Time
I hope you will enjoy this small tab.
E-Mail: [email protected]




Ваше мнение



Капча