im still bored so ill attempt this wicked nevermore song.
tune down 1/2 step
intro
gtr.1
:--------------0---------------------
:-----------------------------3---5--
:-2-----5--3--(3)----2-----5--3---3--
:-0---003--1--(1)--110---005------3--
gtr.2
:--------------------------------
:--------------------------------
:-0-0-0-1--0-0-0-3p0-0-0-6p0-0-0-
verse
:-2-----3----1----2-------3------1--
:-2-222-3-33-1-11-2-2-222-3-3333-1--
:-0-000-0-00-0-00-0-0-000-0-0000-0--
bridge
:-------------------------------------------------------------------------------
:------3p2p0-3----------3p2p0-3----------3-2-0-2----------3p2p0-2----------3p2p0
:-0h3h5-------2--3-0h3h5-------2--3-0-3-5-------2--3-0h3h5-----3-2--3-0h3h5-----
:-------------0001-------------0001-------------0001-------------0001-----------
chorus
:--------------------------------------------------------------------1-
:-3-2----2----2------3-2----2----2----3-2----2----2------3-2----2----1-
:-1-0-00-0-00-0-0000-1-0-00-0-00-0----1-0-00-0-00-0-0000-1-0-00-0-00---
solo riff:
:---------------------------4--5-4-------
:------------5---------------------5-7-4-
:-2--3-------3---2----------2--3-2-------
:-0--1-0-0-0-----0--0-0-0-0--------3-5-2-
i cant figure out the solos or the thing after the first chorus but i havent really tried so maybe theyll come later. this should tickle ur asshole for a while. for more ass tickling check out my band Ded End at www.dedend.20m.com. peace.


Ваше мнение



Капча