NEVERMORE - Dreaming Neon Black (Rhythm Guitar)
Transcribed by Haris Durakovic
Riff 1
//--------------------------------------------------------//
//----10-------8-------10-----8-----8-----7-----8-----7---//
//----9--------9-------9------9-----9-----9-----9-----9---//
//----9--------9-------9------9-----9-----9-----9-----9---//
//----7--------7-------7------7-----7-----7-----7-----7---//
//--------------------------------------------------------//
Riff 2
//---7---------//----------------------0--------------------
//---7---------//-------------------------------------------
//---9---------//---------------6-------------6------------
//---9---------//-----------9------9------9------9--------
//---7---------//--------7---------------------------------
//-------------//-------------------------------------------

//-------------------0---------------------------------------//
//-----------------------------------------------------------//
//------------5-------------5--------------------------------//
//--------9------9------9------9-----------------------------//
//----7------------------------------------------------------//
//-----------------------------------------------------------//
Refrain
//---------------------------------------------------------//
//---------------------------------------------------------//
//---------------------------------------------------------//
//-----5---5-----5-/-7-----7-----3--2----------------------//
//-----5---5-----5-/-7-----7-----3--2----------------------//
//-----3---3--3--3-/-5--5--5--1--1--0----------------------//
not sure about this part! Riff 3
//--------------------------------------------------------
//--------------------------------------------------------
//--------------------------------------------------------
//---------------------2----------------------2-----------
//---------------------2----------------------2-----------
//---2--3--0--0--2--3--0----2--3--0--0--2--3--0-----------

//----------------------------------------------------------//
//----------------------------------------------------------//
//------------------6------------5--------------------------//
//------------------7------------7--------------------------//
//------5-7-4-4-5-7-4-3-5----3-5-3--------------------------//
//-----------------------0-0--------------------------------//
clean Riff4

//---------------------------------------------------------
//-------------3-------------------3-----------------------
//--------4------4----4------4-------4---4-----------------
//-----4----4------4-------4---4-------4-------------------
//---2--------------------5--------------------------------
//---------------------------------------------------------

//-------------------------------2---------------------------//
//------------2--------------------2-------------------------//
//-------3------3---3--------3-------3-----------------------//
//-----4---4------4--------4---------------------------------//
//---4--------------------4-------------4--------------------//
//----------------------2------------------------------------//

Riff 1: first backwards
4x
Riff 2: 1x
Riff 1: 3x
Riff 2: 1x
Refrain: 4x
Riff 2: 1x
Riff 1: 2x
Riff 2: 1x
Riff 1: 2x
Riff 2: 1x
Riff 1: 2x
Riff 2: 1x
Refrain: 4x
Riff 3: 2x
Riff 4: 4x
Refrain: 8x
Riff 3: 4x
Riff 1: backwards
The fuckin' third riff is very difficult to transcribe because the lead
guitar is very loud! So, if you have any ideas how this riff could be
correctly transcribed please mail me:
[email protected]




Ваше мнение



Капча