Nerf Herder - Rock City News
Submitted By: Daniel Taylor
EMail: [email protected]|----------------------------------------------------------------------||
B|----------------------------------------------------------------------||
G|--44--33--44-------44--33--44-------44--33--44-------77--44--33---44--||
D|----------------------------------------------------------------------||
A|----------------------------------------------------------------------||
E|----------------------------------------------------------------------||
Chords under riff:
B5 G#5 F#5 Em
E|-----------------------||
B|-----------------------||
G|--4--------------------||
D|--4----6----4----2-----||
A|--2----6----4----2-----||
E|-------4----2----0-----||
Pre-chorus chords: G#5 F#5 B5 Em G#5 F#5 Em
Chorus: B5 G#5 F#5 Em
There you go.




Ваше мнение



Капча