Artist: Nerf Herder
Song: New Jersey Girl
Tabbed by: Jim Siena ([email protected])
Date: April 17, 2004
Intro:
e:-------------------------------------------
B:-------------------------------------------
G:---6s7-6-4-6-----------6s7-6-4-6-----------
D:--0---------7-5-7-4---------------7-5-7-4--
A:-------------------------------------------
E:-------------------------------------------
Chords:
-All verses and chorus play these same chords.
A5 D5 B5 D5
e:-------------------------------------------
B:-------------------------------------------
G:----------7-7-7-xx-4-4-4-xx-7-7-7-xx-------
D:-7-7-7-xx-7-7-7-xx-4-4-4-xx-7-7-7-xx-------
A:-7-7-7-xx-5-5-5-xx-2-2-2-xx-5-5-5-xx-------
E:-5-5-5-xx----------------------------------
Verse 1: (Normal)
A5 D5 B5 D5
well i met her at the trocadero, in philly,
A5 D5 B5 D5
backstage at the bloodhound show
A5 D5 B5 D5
she said she was from cherry hill, cherry hill
A5 D5 B5 D5
through lips like cherries in the snow,
Chorus: (w/Distortion)
A5 D5
new jersey girl, new jersey girl
B5 D5
come on and rock my world
A5 D5
new jersey girl, new jersey girl
B5 D5
i want to love you
A5 D5
new jersey girl, new jersey girl
B5 D5
with your crazy fucked up hair
A5 D5
new jersey girl, new jersey girl
B5 D5
you're wicked awesome
Verse 2:
A5 D5 B5 D5
she didn't talk to charlie
A5 D5 B5 D5
our old bass player
A5 D5 B5 D5
and she didn't go off with steve
A5 D5 B5 D5
not the cougar, not the cougar
A5 D5 B5 D5
she took me up to the balcony
A5 D5 B5 D5
past kenneth keith kallenbauch
A5 D5 B5 D5
and give a yingling to me
Repeat chorus.
Verse 3:
e:-------------------------------------------
B:-------------------------------------------
G:---6s7-6-4-6-----------6s7-6-4-6-----------
D:--0---------7-5-7-4---------------7-5-7-4--
A:-------------------------------------------
E:------------------------------------------- (2x)

e:-------------------------------------------
B:-------------------------------------------
G:---6s7-6-4-6--------------6-----7----9--7--
D:--0---------7-5-7-4------7-7---7-7---9--7--
A:-------------------------------------7--5--
E:-----------------------5------5------7--5--
distortion
her brother calls me blowjob
when i call her on the phone
he says, 'hey fuck-wad, are you wackin it, are you wackin' it?'
no, but is your sister home?
Final:
(Repeat Chorus.)
new jersey girl, new jersey girl
come on and rock my world
new jersey girl, new jersey girl
i want to love you
new jersey girl, new jersey girl
with your crazy fucked up hair
new jersey girl, new jersey girl
you're wicked awesome
la la la la la.....
new jersey girl


Ваше мнение



Капча

Рекомендуем