Nerf Herder - Nervous Breakdown
Submitted By: Daniel Taylor
EMail: [email protected]
Tuning: Standard (E A D G B E)
Intro
E|----------------------------------------||
B|---12---1212-13-12-13-121212-13131313---||
G|---12---1212-12-12-12-121212-12121212---||
D|---12-----------------------------------||
A|----------------------------------------||
E|----------------------------------------||
E|----------------------------------------||
B|--1515--131313--151515-1313-------------||
G|--1212--121212--121212-1212-------------||
D|----------------------------------------||
A|----------------------------------------||
E|----------------------------------------||
Verses
E|------||
B|------||
G|------||
D|--5*--||
A|--5*--||
E|--3*--||
Chorus
E|---------------------------||
B|---------------------------||
G|--7----9----7----5--4--5---||
D|--7----9----7----5--4--5---||
A|--5----7----5----3--2--3---||
E|---------------------------||




Ваше мнение



Капча

Рекомендуем