Nerf Herder - Mr. Spock
Submitted By: Daniel Taylor
EMail: [email protected]/Verse (Palm muted)

e|----------------||
B|----------------||
G|----------------||
D|--7----5----3---||
A|--7----5----3---||
E|--5----3----1---||

Chorus

e|---------------------------||
B|---------------------------||
G|--5---------7--------------||
D|--5----5----7----7---(3)---||
A|--3----5----5----7---(3)---||
E|-------3---------5---(1)---||

Bridge

A5, F5

End with A5




Ваше мнение



Капча

Рекомендуем