KISS ME DEADLY - Nerf Herder
By:Nick Cottier

Questions or comments send to [email protected]

Not even worth tabbing but i was bored

Verse
e|-------------------|
B|-------------------|
G|--7-----7----------|
D|--7--5--7--5-------|
A|--5--5--5--5-------|
E|-----3-----3-------|

But i know what i like...
e|-------------------------|
B|-------------------------|
G|-------------------------|
D|-------------------------|
A|--5-4-5-0-5-4-5-2---5-4--|
E|-------------------------|

Kiss me once...
e|----------------------------------|
B|----------------------------------|
G|--7---------7---------7-----------|
D|--7--5--7---7--5--7---7--7--5--7--|
A|--5--5--7---5--5--7---5--7--5--7--|
E|-----3--5------3--5------5--3--5--|

Doo doo doo do doo doo do
e|----------------|
B|----------------|
G|-7-7-----7------|
D|-7-7--5--7--5---|
A|-5-5--5--5--5---|
E|------3-----3---|

Outro
e|--------------|
B|--------------|
G|--7-----------|
D|--7--7--5--7--|
A|--5--7--5--7--|
E|-----5--3--5--|




Ваше мнение



Капча

Рекомендуем