Nerf Herder - Jonathan
Tabbed By: Daniel Taylor
EMail: [email protected]
Intro
E------------------------------------------------------------
B------------------------------------------------------------
G------------------------------------------------------------
D----7-7----2-2-2-2-2-2-2-2------7-7-----2-2-2-2-2-2-2-2-----
A----7-7----2-2-2-2-2-2-2-2------7-7-----2-2-2-2-2-2-2-2-----
E----5-5----0-0-0-0-0-0-0-0------5-5-----0-0-0-0-0-0-0-0-----
E A
Straight out of Boston
E A
to reivent the modern rock and roll
E A
he put down the cigarette
E A E A B
and dropped out of b.u.
B
Too sensitive for this world
A A E
Too sensitive for that girl
He could look right through the cezans
If he had a girlfriend
a g-i-r-l-f-r-i-e-n-d in the astral plane
B
Too sensitive for this world
A
Too sensitive for that girl
(E D# C# B A)
Please God don't let me end up like Jonathan Richman
E A E B
turn the radio off turn the radio off turn the radio off
F# A
turn the radio off
(E D# C# B) 3x A E
A E
He was never called an asshole
A E
as he would walk past the fanway
A E
modern girls modern rock and roll
A E A B
he's straight you're stoned
B
Too sensitive for this world
A
Too sensitive for that girl
(E D# C# B A)
Please God don't let me end up like Jonathan Richman
E A E B
turn the radio off turn the radio off turn the radio off
F# A
turn the radio off
(E D# C# B A) 3x A E
Please God don't let me end up like Jonathan Richman
Outro
E---------------------------------------------------------------
B---------------------------------------------------------------
G---------------------------------------------------------------
D----7-7---2------7-7---2------7-7---2------9-9-9---2-----------
A----7-7---2------7-7---2------7-7---2------9-9-9---2-----------
E----5-5---0------5-5---0------5-5---0------7-7-7---0-----------
Enjoy.




Ваше мнение



Капча

Рекомендуем