Nerf Herder - High Five Anxiety
Submitted By: Daniel Taylor
EMail: [email protected]
Standard Tuning
Verse (palm muted)
e|-------------------------------------------------------------------------||
B|-------------------------------------------------------------------------||
G|----------------------------77777777-55555555----------55555555-77777777-||
D|-55555555-55555555-22222222-77777777-55555555-55555555-55555555-77777777-||
A|-55555555-55555555-22222222-55555555-33333333-55555555-33333333-55555555-||
E|-33333333-22222222-00000000-------------------33333333-------------------||

No PM------------------------------------
Chorus
e|-------------------------------------------------------------------------||
B|-------------------------------------------------------------------------||
G|-99999999-77777777----------55555555-99999999-77777777-55555555----------||
D|-99999999-77777777-55555555-55555555-99999999-77777777-55555555-55555555-||
A|-77777777-55555555-55555555-33333333-77777777-55555555-33333333-55555555-||
E|-------------------33333333-------------------------------------33333333-||
------------------------------------------------------|
------------------------------------------------------|
-55555555----------55555555----------7777777777777777-|
-55555555-55555555-55555555-55555555-7777777777777777-|
-33333333-55555555-33333333-55555555-5555555555555555-|
----------33333333----------33333333------------------|
Solo
e|-------------------------------------||
B|-------------------------------------||
G|--------------------------------12---||
D|-7-9-10-12-10-9------9-10-12-14------||
A|------------------10-----------------||
E|-------------------------------------||
e|------------------------------------------------------||
B|-------12-13-12-10-----------13-12------------12------||
G|--9-12-------------12--------------14-12-14------14---||
D|----------------------12-9----------------------------||
A|------------------------------------------------------||
E|------------------------------------------------------||
e|-------------------------------------------------||
B|-------------------------------------------------||
G|----9-12-9-------9-12-9----9-12-9-------9-12-9---||
D|-12--------12-12--------12--------12-12----------||
A|-------------------------------------------------||
E|-------------------------------------------------||
e|---------------------------------------------------||
B|---------10-12-10-----------------12-13-12---------||
G|-12-9-12----------12-9---14-12-14----------14-12---||
D|---------------------------------------------------||
A|---------------------------------------------------||
E|---------------------------------------------------||
Backing Chords
same as verse
Back to verse
e|-------------------------------------------------------------------------||
B|-------------------------------------------------------------------------||
G|----------------------------77777777-55555555-------------------77777777-||
D|-55555555-55555555-22222222-77777777-55555555-55555555-77777777-77777777-||
A|-55555555-55555555-22222222-55555555-33333333-55555555-77777777-55555555-||
E|-33333333-22222222-00000000-------------------33333333-55555555----------||
e|-------------------------------------------------------------------------||
B|-------------------------------------------------------------------------||
G|----------------------------77777777-55555555----------------------------||
D|-55555555-44444444-22222222-77777777-55555555-55555555-7777777777777777--||
A|-55555555-44444444-22222222-55555555-33333333-55555555-7777777777777777--||
E|-33333333-22222222-00000000-------------------33333333-5555555555555555--||
e|------------------------||
B|------------------------||
G|-7777777777777777-7-7---||
D|-7777777777777777-7-7-5-||
A|-5555555555555555-5-5-5-||
E|----------------------3-||




Ваше мнение



Капча

Рекомендуем