Title: Golf Shirt
By: Nerf Herder
Transctiber: [email protected]
V1
------------------------
------------------------
-------2--2--4--4--4--4-
-0--0-------------------
V2
------------------------
------------------------
-------2--2--4--2--0----
-0--0-------------------
CH1
------------------------------------------------
------------------------------------------------
-------------------------4--4--4--4--0--0--0--0-
-4--4--4--4--4--4--4--4-------------------------
CH2
------------------------------------------------
-2--2--2--2--2--2--2--2-------------------------
------------------------------------------------
-------------------------4--4--4--4--4--4--4--4-
------------------------------------------------
------------------------------------------------
-4--4--4--4--4--4--4--4--0--0--0--0--2--2--2--2-
------------------------------------------------
Bridge
------------------------------------------------
-2--2--2--2--2--2--2--2-------------------------
-------------------------2--2--2--2--2--2--2--2-
------------------------------------------------
------------------------------------------------
------------------------------------------------
-4--4--4--4--4--4--4--4--0--0--4--0--------2--4-
-------------------------------------4--4-------
V/Ch2
------------------------------------------------
-2--2--2-----2--4-------------------------------
----------4--------2--2--2-----2--4--4--4--4--2-
----------------------------4-------------------
------------------------------
------------------------------
-4--2--0--0--4--0--------2--4-
-------------------4--4-------
The Music:
V1 x4 (intro)
V1 x7 (Verse 1)
V2 x1 (Verse 1)
Ch1 x3 (Chorus)
Ch2 x1 (Chorus)
V1 x2
V1 x7 (Verse 2)
V2 x1 (Verse 2)
Ch1 x3 (Chorus)
Ch2 x1 (Chorus)
Bridge x1
V/Ch2 x2 (Verse 3)
V/Ch2 x8 (Verse 3)
V1 x4




Ваше мнение



Капча

Рекомендуем