Nerf Herder - Busted
Submitted By: Daniel Taylor
EMail: [email protected]com
Intro & Verse(palm-muted):
e|-----------------------||
B|-----------------------||
G|--5--------------------||
D|--5-----7-----3-----5--||
A|--3-----7-----3-----5--||
E|--------5-----1-----3--||
Chorus:
e|------------||
B|------------||
G|--------5---||
D|--7--5--5---||
A|--7--5--3---||
E|--5--3------||
|------------||
|------------||
|--7----10---||
|--7----10---||
|--5----8----||
|------------||
Went away to college bit...
e|------------------|
B|------------------|
G|--5~--------------|
D|------7~--3~--5~--|
A|------------------|
E|------------------|
End
e|------||
B|------||
G|------||
D|--10--||
A|--10--||
E|--8---||




Ваше мнение



Капча

Рекомендуем