Buffy the Vampire Slayer by Nefr Herder tabbed by James (Leeboy105)

(Drag pick up neck)

e|----------------------------------------------------------
B|----------------------------------------------------------
G|-9--11--12--7------9--11--7--9-------11--12--7--------9---
D|-9--11--12--7------9--11--7--9-------11--12--7--------9---
A|-7--9---10--5(X3)--7--9---5--7(X12)--9---10--5(X20?)--7---
E|----------------------------------------------------------

e|----------------------------------7(X8)--10--12--7(X8)----
B|--------------10--12--10--8--87--------------------------
G|----------------------------------------------------------
D|-11--7----------------------------------------------------
A|-11--7----------------------------------------------------
E|-9---5(X12)----------------------------------------------

e|-10--12--5(X10)--7--10--5(X12)--6(X12)--------------------
B|----------------------------------------------------------
G|----------------------------------------9-----------------
D|----------------------------------------9-----------------
A|----------------------------------------7(X3)-------------
E|----------------------------------------------------------

That's the whole song!
It's my first tab so any comments please send to [email protected] or send me a message

Thank you




Ваше мнение



Капча